Oops, an error
Loading. Please wait.

Alberto Balsalm tab

64 views 12 this week
no commentswrite comment
1 2 3 4 5
2 more votes to show rating
add to favorites
×
Save as Personal and add changes to this tab that will be seen only by you. Learn more ›
×
You can save this tab as Personal to edit and correct it or add notes. All changes will be seen only by you. Learn more »
launch autoscroll
font size
0
reset
how to read this tab
guitar tuner
edit
Autoscroll
slow
fast
+/-
esc
set tempo
stop
Alberto Balsalm - Aphex Twin
 
Adapted for guitar by Andrew Flanders - http://www.youtube.com/AndrewFlanders
Standard tuning, capo 3rd fret 

[PHRASE A]
e||----------------|----------------|
B||----------------|-------------0--|
G||-------5-------4|---------------0|
D||----------------|-------2---2----|
A||---------3---3--|-2---2----------|
E||-3---3----------|---------0------|

[PHRASE B]
e||----------------|----------------|
B||H5------H5H5--H5|H5------H5H5--0-|
G||----H5------H5--|----H5------H5-0|
D||----------------|----------------|
A||---------3------|-2--------------|
E||-3--------------|---------0------|

[PHRASE C]
e||-----------0----|----------------|------55-5-5--5p3|-------7--------|
B||---------3-----0|----------00-0--|---------------- |----------------|
G||---------0-----0|----------00-002|---------------- |----------------|
D||------2h4-------|----------------|---------------- |----------------|
A||---------3-----2|-----2----------|---------3---3-- |-2---2----------|
E||-3---3----------|----------0-0---|-3---3---------- |-------0--------|

[PHRASE D]
e||----------------|----------------|----------------|-------0--------|
B||----------------|-0-1---0--------|-----------0----|-0h1---------0--|
G||----------------|-0-0---0--------|-----0-----2----|-0-----------0--|
D||----------------|-------2--------|---4-------2----|---------2------|
A||-------0---0----|-0-----3--------|---3-------0----|-0--------------|
E||-3--------------|----------------|----------------|---------2---3--|

e||-------0--------|-----3---2------|-5p3---7--------|
B||-0h1p0-0-----3--|-3-------3---3--|-0-----0--------|
G||-0--------------|-2-------0------|-0-----0--------|
D||----------------|-0--------------|----------------|
A||-------0--------|----------------|-------0--------|
E||-3--------------|-2-------0------|-3--------------|

(skip the first bar in repetitions of PHRASE D)


Arrangement Of Phrases:

A A B A A B
C B C B
D D D (with each repetition gaining intensity)
C B A B C B
D D D (with each repetition gaining intensity)
A B A B (A is percussion only and B is harmonic only)
A A A
B C B C A C A A (fade)



************************************

| p  Pull-off
| h  Hammer-on
| H  Harmonic 

************************************
Suggest correction
Creating personal tab
Creating personal tab
You can edit any tab online and save it as your Personal.

You can edit, replace or remove any tab part or add personal notes – all changes will be seen only by you.

Personal tabs can be accessed anytime from any device, even offline.
Learn more »
Give kudos to tab author, rate the tab!
1 2 3 4 5
comments
print report bad tab
guest
You may want to rate the tab now too:
select rating
Wanna post a correction for this tab? Suggest correction