Oops, an error
Loading. Please wait.

The Four Horsemen Tab

85 views 21 this week
no commentswrite comment
1 2 3 4 5
1 last vote to show rating
add to favorites
launch autoscroll
font size
0
reset
how to read this tab
guitar tuner
Autoscroll
slow
fast
+/-
esc
set tempo
stop
Help us to improve Ultimate-Guitar.com Take our survey!
×
Author
Difficulty
intermediate
 [Verses]

 (0:00-0:54)+(1:15-2:15)
   E       D
e|-0-------2--------------------------------------------------------------------------------------|
B|-0-------3--------------------------------------------------------------------------------------|
G|-1-------2-------- Strum just one downstroke at each chord. Repeat multiple times --------------|
D|-2-------0--------------------------------------------------------------------------------------|
A|-2----------------------------------------------------------------------------------------------|
E|-0----------------------------------------------------------------------------------------------|


[Chorus]

(0:55-1:15)+(2:15-2:57)

  The leading horse...   The Second...           The third...   ...black      The last one...
  E5                     D5                       C5           D5             C5   D5   E5
e|----------------------|-----------------------|----------------------------|------------------------------|
B|----------------------|-----------------------|----------------------------|------------------------------|
G|----------------------|-----------------------|----------------------------|------------------------------|
D|-9-9-9--9-9-9-9-9-9---|--7-7-7--7-7-7-7-7-7---|--5-5-5--5---7-7--7-7-7-7---|-5-5--7-7--9-9-9--9-9-9-9-9-9-|
A|-9-7-7--7-7-7-7-7-7---|--5-5-5--5-5-5-5-5-5---|--3-3-3--3---5-5--5-5-5-5---|-3-3--5-5--7-7-7--7-7-7-7-7-7-|
E|----------------------|-----------------------|----------------------------|------------------------------|


[Outro]

 (2:57)
e|----------------------------------------------------------------15----15--17b-17b-17brp15-17-15-----|
B|-------------------------------------------------15-15h17-15h17----17-------------------------------|
G|-16p14-14\12-12---------------------12----12-/16----------------------------------------------------|
D|-----------------14-12-12-14--12-14----14-----------------------------------------------------------|
A|----------------------------------------------------------------------------------------------------|
E|----------------------------------------------------------------------------------------------------|

e|----------------------------------------------------------------------------------------------------|
B|-17-15----------------------------------------------------------------------------------------------|
G|-------16\12--14-12----------14b-p12-14-12-----------------12----12--14b-14b-14p12----12------------|
D|--------------------14-12h14---------------14-12h14-14--14----14-------------------14----14-12-14---|
A|----------------------------------------------------------------------------------------------------|
E|----------------------------------------------------------------------------------------------------|

 (3:13)
e|----------------------------------------------------------------------------------------------------|
B|----------------------------------------------------------------------------------------------------|
G|----12-14p12---14p12----14b-14b-14brp12----------14-12------------------------------------12h14p12--|
D|-14----------14------14-----------------14-12-14-------12h14---------12-----12h14--12-14------------|
A|-----------------------------------------------------------------14-----14--------------------------|
E|----------------------------------------------------------------------------------------------------|

 
e|--------------------------------17b-17b-17brp15-17-15-----------------------------------------------|
B|----------15-15h17-17--15-17p15------------------------17p15-------------------------------15-17----|
G|----14/16----------------------------------------------------16\12-14-14p12------------/16----------|
D|-14-------------------------------------------------------------------------14p12-14----------------|
A|----------------------------------------------------------------------------------------------------|
E|----------------------------------------------------------------------------------------------------|

e|-------------------------------------12---12--------------------------------------12----------------|
B|----------------------------------------------------------------------------------------------------|
G|------------------------12----12h14b---14b---14b-14-14brp12----12~~--------12h14b----14brp12-14-12--|
D|-------12--12h14--12h14----14-------------------------------14-----14-12h14-------------------------|
A|-12h14----------------------------------------------------------------------------------------------|
E|----------------------------------------------------------------------------------------------------|

 (3:40)
e|------------------------------------------------------------------17p15--17p15--17p15--17p15--17p15--|
B|----------------------------------------------------------15-15h17-----17-----17-----17-----17-----17|
G|-------------------------14brp12-14-12---------------14/16-------------------------------------------|
D|-14-12h14-14--14-14-12-14-------------14--14-14-12-14------------------------------------------------|
A|-----------------------------------------------------------------------------------------------------|
E|-----------------------------------------------------------------------------------------------------|

e|-17-15-----------------------------12-------12------12------12---------------------------------------|
B|------17------------------------------------------------------------------------------------15-15h17-|
G|--------16\12-14-14p12--------------------------------------------12-14p12---12-14-12-/16-16---------|
D|-----------------------14-14-12h14----12h14----12h14---12h14---14----------14------------------------|
A|-----------------------------------------------------------------------------------------------------|
E|-----------------------------------------------------------------------------------------------------|

 (4:00)
e|-----------15----17-15-------------------------------------------------------------------------------|
B|-17--15h17----17-------17-15-15\12-12----------------------------------------------------------------|
G|---------------------------------------14-12-------------12-14-12----11h12p11-11---------------------|
D|---------------------------------------------14-12-12h14----------14------------14-12-14-14----------|
A|--------------------------------------------------------------------------------------------12-14-14-|
E|-----------------------------------------------------------------------------------------------------|

e|--------------------------------------------------------------12-------12h13p12----------------------|
B|-----------------------------------------------------------------------------------------10h12/15p12-|
G|--------------12--------------12------------------------------------------------------12-------------|
D|--12-14p12--------14-14p12--------14-----12h14-14-12h14-12h14----12h14----------12-14----------------|
A|-----------14--------------14------------------------------------------------------------------------|
E|-----------------------------------------------------------------------------------------------------|

 
e|-----------17b-17-15---------------------------------------17b-17-15--------------------17b-17-15----|
B|-/17-15-17-----------17-15h17-17-15-17-15-17---15h17-15-17-----------15-17--15h17-15-17--------------|
G|-----------------------------------------------------------------------------------------------------|
D|-----------------------------------------------------------------------------------------------------|
A|-----------------------------------------------------------------------------------------------------|
E|-----------------------------------------------------------------------------------------------------|

                                                                             (4:31)
e|---------------------17p15----17-15------------------------------------------------------------------|
B|--17-15h17-17--15h17-------17-------17-17--15h17~~-15--------------------------------------15---17br-|
G|------------------------------------------------------16p14\12h14-p12---------12-14p12-/16---16------|
D|----------------------------------------------------------------------14---14------------------------|
A|-----------------------------------------------------------------------------------------------------|
E|-----------------------------------------------------------------------------------------------------|

e|----15-17p15----17b--17b-17----15--------------------------------------------------------------------|
B|-17----------17-------------17----15-17-15-----------------------------------------------------------|
G|-------------------------------------------16-12h14p12-----------14b-14-12----------------14b-14-12--|
D|-------------------------------------------------------14---12h14-----------14-12h14-12h14-----------|
A|-----------------------------------------------------------------------------------------------------|
E|-----------------------------------------------------------------------------------------------------|

                                                    (4:50)
e|-----------------------------------------------------------------------------------------------------|
B|-----------------------------------------------------------------------------------------------------|
G|-----------------14/16-14-12----------14b-14b--------------------------------------------------12----|
D|--14-12h14-12h14-------------14-12h14---------14-------------------------12-12h14-12h14--12h14-------|
A|--------------------------------------------------------------12-----/14-----------------------------|
E|---------------------------------------------------/12--12-15----15----------------------------------|

e|-----------=-----------------------------------------------------------------------------------------|
B|-----------------------------------------------------------------------------------------------------|
G|-------12-------12-------12-------12-------12-------12--------12--------------12---------12----------|
D|-12h14----12h14----12h14----12h14----12h14----12h14-----12h14----12h14--14~~~-12h14~~~---12h14~~~----|
A|-----------------------------------------------------------------------------------------------------|
E|-----------------------------------------------------------------------------------------------------|

                                        (5:20)
e|-----------------------------------------------------------------------------------------------------|
B|-----------------------------------------15----15-17-----15----15-17-----15----15--------15----15-17-|
G|--12-------12-------12-------12-------16----16--------16----16--------16----16----14--16----16-------|
D|--12h14~~--12h14~~--12h14~~--12h14~~-----------------------------------------------------------------|
A|-----------------------------------------------------------------------------------------------------|
E|-----------------------------------------------------------------------------------------------------|


e|-----------------------------------------------------------------------------------------------------|
B|-20p17p15--20p17p15--20p17p15--20p17p15--------------------------------------------------------------|
G|-----------------------------------------/14-14-14-14brp12---------------12--------------------------|
D|-----------------------------------------------------------14---14-12-14----14-12-14--14-14-14-------|
A|-----------------------------------------------------------------------------------------------------|
E|-----------------------------------------------------------------------------------------------------|

e|-------------------------------------|
B|-------------------------------------|
G|-----------12------------------------|
D|-14-12-14-----14-12-14--14-14-14-----|
A|-------------------------------------|
E|-------------------------------------|


(5:40 At the "ta ta tatata" part)
 E5                      D5                  C5             D5            C5   D5   E5
e|--------------------|---------------------|----------------------------|----------------------------|
B|--------------------|---------------------|----------------------------|----------------------------|
G|--------------------|---------------------|----------------------------|----------------------------|
D|-9-9-9--9-9-999-9---|--7-7-7--7-7-777-7---|--5-5-5--5-----7-7--777-7---|-5-5--7-7--9-9-9--9-9-999-9-|
A|-9-7-7--7-7-777-7---|--5-5-5--5-5-555-5---|--3-3-3--3-----5-5--555-5---|-3-3--5-5--7-7-7--7-7-777-7-|
E|--------------------|---------------------|----------------------------|----------------------------|
Playing E, D and C power chords just as in the chorus


~~~~~~~~~~~~~~~~~~~~~~~~~~~~~~~~~~~~~~~~~~~~~~~~~~~~~~~~~~~~~~~~~~~~~~~~~~~~~~~~~~~~~~~~~~~~~~~~~~~~~~~
~~~~~~~~~~~~~~~~~~~~~~~~~~~~~~~~~~~~~~~~~~~~~~~~~~~~~~~~~~~~~~~~~~~~~~~~~~~~~~~~~~~~~~~~~~~~~~~~~~~~~~~

h - hammer on 
p - pull off 
b - bend string up
r - release bend
/ - slide up
\ - slide down
~ - vibrato
x - mute
Suggest correction
Give kudos to tab author, rate the tab!
1 2 3 4 5
comments
print report bad tab
guest
You may want to rate the tab now too:
select rating
Wanna post a correction for this tab? Suggest correction