Oops, an error
Loading. Please wait.

I Dont Care Tab

version 1
version 1

Interactive

31,144 views 18 this week
2 commentsread comments
1 2 3 4 5
accurate
x 3
add to favorites
launch autoscroll
font size
0
reset
how to read this tab
guitar tuner
Autoscroll
slow
fast
+/-
esc
set tempo
stop
Help us to improve Ultimate-Guitar.com Take our survey!
×
Difficulty
Tuning
novice
C G C F A D
----------------------------------------------------------------------------
                             I Don't Care - Apocalyptica
----------------------------------------------------------------------------
Tabbed by: Chris Wihelm
Email: flashes07@yahoo.com

Tuning:Drop C Tuning (CGCFAD)

You Only really play during the first Chorus, the 2nd and 3rd Verse, the 2nd Chorus, the 
the 3rd Chorus. So have fun its a great song and i hope you like it. You will have to 
to the song for struming but here are the chords.

CHORUS
d|--------------------------------------------------------------------------|
A|--------------------------------------------------------------------------|
F|--------------------------------------------------------------------------|
C|2-------5-------4------5------7-------2------5-----4-----5-----7----------|
G|2-------5-------4------5------7-------2------5-----4-----5-----7----------|
C|2-------5-------4------5------7-------2------5-----4-----5-----7----------|

VERSE
d|--------------------------------------------------------------------------|
A|--------------------------------------------------------------------------|
F|--------------------------------------------------------------------------|
C|2---4---5---7-------------------------------------------------------------|
G|2---4---5---7-------------------------------------------------------------|
C|2---4---5---7-------------------------------------------------------------|

BRIDGE
d|--------------------------------------------------------------------------|
A|--------------------------------------------------------------------------|
F|--------------------------------------------------------------------------|
C|2---5---7---9---2---5---7---9---------------------------------------------|
G|2---5---7---9---2---5---7---9---------------------------------------------|
C|2---5---7---9---2---5---7---9---------------------------------------------|


Again, listen to the song for the struming.

But the song structure is:

Verse (1x)
Prelude (1x)
(Now this is when you start playing) Chorus (1x)
Verse (2x)
Chorus (1x)
Bridge (1x)
(Haven't figured this part out yet) Interlude (1x)
Chorus (2x)
Suggest correction
Give kudos to tab author, rate the tab!
1 2 3 4 5
comments
print report bad tab
2 comments total.
0 reply
alexandre4090 211 wrote on May 11 2008, 02:55 pm

I prefer my chords version of "I Don't Care" lol. Your tab is probably a copy it, but... I don't care! Apocalyptica and Adam Gontier rock!

0 reply
unlucky13akadnl 10 wrote on July 23 2008, 12:03 am

i didn't think it was well done at all... just my opinion. The chords are good I just think it could have been ayed out a little better.

guest
You may want to rate the tab now too:
select rating
Wanna post a correction for this tab? Suggest correction