Oops, an error
Loading. Please wait.

I Dont Care Tab

version 2
version 2

Interactive

45,542 views 3 this week
10 commentsread comments
1 2 3 4 5
excellent!
x 8
add to favorites
launch autoscroll
font size
0
reset
how to read this tab
guitar tuner
Tab Pro tools
  • play this tab
  • loop segment
  • change instrument
  • show fretboard
  • metronome
×
Best way to learn
"I Dont Care"
Autoscroll
slow
fast
+/-
esc
set tempo
stop
Contributor
Tuning
C G C F A D
-------------------------------------------------------------------------------
                             I don't Care - Apocalyptica
-------------------------------------------------------------------------------
Tabbed by: Jade_Simone
Email: Cyanide_Sun616@hotmail.com

Tuning: Drop C

This is my first Apocalyptica song, so I'm not very familiar with their style. 
I did give it my best shot though. Please feel free to post corrections.

Intro/ First Verse: Played by Strings
d|------------|
A|------------|
F|------------|
C|------------|
G|-5--5--3-1--|
C|-5--5--3-1--|

Chorus:                                      |1.----||2.----                            
d||------------------------------------------|------||--------------|
A||O-----------------------------------------|-----O||--------------|
F||------------------------------------------|------||--------------|
C||-------------------22-44444444--555555----|-4-4--||-5-5----------|
G||O-222222-44-555555-00-22222222--333333----|-2-2-O||-3-3--5--3--1-|
C||--222222-44-555555------------------------|------||------5--3--1-|
                                                   
Verse 3:
d|---------------------------------------------------------------------------|
A|---------------------------------------------------------------------------|
F|---------------------------------------------------------------------------|
C|--999-99-999-99-777-77-555-55-999-999-99-999-999-99-777-777-77-555-555--55-|
G|--777-77-777-77-555-55-333-33-777-777-77-777-777-77-555-555-55-333-333--33-|
C|---------------------------------------------------------------------------|
    ...    ...    ...    ...    ... ...    ... ...    ... ...    ... ...
d|-------|
A|-------|
F|-------|
C|-7-8---|
G|-5-6---|
C|-------|

Chorus

"You weren't there for me" etc.
d|---------------------------------------------------------------------------|
A|---------------------------------------------------------------------------|
F|---------------------------------------------------------------------------|
C|-------------------55555555-2222-4444-------------------55555555-77777777--|
G|-22222222-55555555-33333333-0000-2222-22222222-55555555-33333333-55555555--|
C|-22222222-55555555--------------------22222222-55555555--------------------|


Interlude (with piano): Played with Strings and octave lower.
d|------------------|
A|------------------|
F|------------------|
C|-9---7---5---4----|
G|-7---5---3---2----|
C|------------------|

chorus

Ending Note
d|-----|
A|-----|
F|-----|
C|-----|
G|-2~--|
C|-2~--|



| /  slide up
| \  slide down
| h  hammer-on
| p  pull-off
| ~  vibrato
| +  harmonic
| x  Mute note
===============================================================================
comments
print report bad tab
10 comments total. Showing first comments.
+1 reply
lespaul1216 wrote on September 27 2008, 11:19 am

nice tab, dude

-1 reply
st.angerftw wrote on November 2 2008, 12:25 pm

r u sure its in c

-2 reply
§.....§ wrote on November 2 2008, 06:01 pm

good tab but play it in drop D!!

I want to post or [tab]
guest
You may want to rate the tab now too:
select rating
Please do not post tabs as comments. Select "correction" instead!