Oops, an error
Loading. Please wait.

I Dont Care Bass Tab

version 3
version 3

Whole song

Interactive

2,741 views 3 this week
no commentswrite comment
1 2 3 4 5
excellent!
x 1
add to favorites
launch autoscroll
font size
0
reset
guitar tuner
Tab Pro tools
  • play this tab
  • loop segment
  • change instrument
  • show fretboard
  • metronome
Autoscroll
slow
fast
+/-
esc
set tempo
stop
Contributor
I Don’t Care
Apocalyptica FT. Adam Gontier
Drop C
Tabbed by: Synysterblack

-Intro-
F|-----------------------------------|
C|-55--55-----------55--55-----------|
G|---------88--66-----------88--66---|
C|-----------------------------------|
   xx  xx  xx  xx   xx  xx  xx  xx


F|----4--171614------4--171614------141211------17--12---|
C|-22-------------22------------00----------------14-----|
G|------------------------------------------33-----------|
C|-------------------------------------------------------|
   xx x   x x x   xx x   x x x  xx   x x x  xx   x x x

F|----4--171614------4--171614------141211------17--12---|
C|-22-------------22------------00----------------14-----|
G|------------------------------------------33-----------|
C|-------------------------------------------------------|
   xx x   x x x   xx x   x x x  xx   x x x  xx   x x x

-Chorus-
F|--------------------------------------------------------------------|
C|-----------------------------------74-4-4-4-4-4-47------------------|
G|-7-7-7-7-7-7-7910-10-10-10-10-10-10---------------7-7-7-7-3-3-2-2---|
C|--------------------------------------------------------------------|

F|------------------------------------------------------------------------|
C|-----------------------------------74-4-4-4-4-4-47----------------------|
G|-7-7-7-7-7-7-7910-10-10-10-10-10-10---------------7-7-7-7-3-3-2-2-------|
C|-------------------------------------------------------------------5~---|

-Verse-
F|--------------------------------|
C|--------------------------------|
G|-777-77-777-77-5~5-555-333-22---|
C|--------------------------------|
   xxx    xxx            xxx 

F|-------------------------------------------------------|
C|-------------------------------------------------------|
G|-777-7-7-7-77-777-777-77-555-555-555-333-333-33-5~6~---|
C|-------------------------------------------------------|
   xxx x x x x  xxx xxx x              xxx xxx x

-Chorus 2-
F|--------------------------------------------------------------------|
C|-----------------------------------74-4-4-4-4-4-47------------------|
G|-7-7-7-7-7-7-7910-10-10-10-10-10-10---------------7-7-7-7-3-3-2-2---|
C|--------------------------------------------------------------------|

F|--------------------------------------------------------------------|
C|-----------------------------------74-4-4-4-4-4-47------------------|
G|-7-7-7-7-7-7-7910-10-10-10-10-10-10---------------7-7-7-7-3-3-2-2---|
C|--------------------------------------------------------------------|

-Solo-
F|---------------------------------------------------------------------11-11---|
C|-----------------------------------79-9-9-9-9-9-910-12-12-12-12-14-14--------|
G|-7-7-7-7-7-7-7910-10-10-10-10-10-10------------------------------------------|
C|-----------------------------------------------------------------------------|

F|---------------------------------------------------------------------11-11-------|
C|-----------------------------------79-9-9-9-9-9-910-12-12-12-12-14-14------------|
G|-7-7-7-7-7-7-7910-10-10-10-10-10-10----------------------------------------------|
C|----------------------------------------------------------------------------2~---|

-Break-
F|----------------------|
C|----------------------|
G|----------------------|
C|----------------------|

-Chorus 3-
F|--------------------------------------------------------------------|
C|-----------------------------------74-4-4-4-4-4-47------------------|
G|-7-7-7-7-7-7-7910-10-10-10-10-10-10---------------7-7-7-7-3-3-2-2---|
C|--------------------------------------------------------------------|

F|--------------------------------------------------------------------|
C|-----------------------------------74-4-4-4-4-4-47------------------|
G|-7-7-7-7-7-7-7910-10-10-10-10-10-10---------------7-7-7-7-3-3-2-2---|
C|--------------------------------------------------------------------|

F|--------------------------------------------------------------------|
C|-----------------------------------74-4-4-4-4-4-47------------------|
G|-7-7-7-7-7-7-7910-10-10-10-10-10-10---------------7-7-7-7-3-3-2-2---|
C|--------------------------------------------------------------------|

F|--------------------------------------------------------------------|
C|-----------------------------------74-4-4-4-4-4-47------------------|
G|-7-7-7-7-7-7-7910-10-10-10-10-10-10---------------7-7-7-7-3-3-2-2---|
C|--------------------------------------------------------------------|

-End-
F|---------|
C|---------|
G|-3~------|
C|----2~---|
comments
We did not receive enough feedback on this tab! Please rate:
print report bad tab
1 2 3 4 5
I want to post or [tab]
guest
You may want to rate the tab now too:
select rating
Please do not post tabs as comments. Select "correction" instead!