Oops, an error
Loading. Please wait.

I Dont Care Tab

version 3
version 3

Interactive

9,262 views 6 this week
no commentswrite comment
1 2 3 4 5
accurate
x 4
add to favorites
launch autoscroll
font size
0
reset
how to read this tab
guitar tuner
Autoscroll
slow
fast
+/-
esc
set tempo
stop
Help us to improve Ultimate-Guitar.com Take our survey!
×
Contributor
Difficulty
Tuning
jbob74 51
novice
C G C F A D
this song have mostly no guitar so i arrenged the cello part and make my version on my 
if you see some mistake or you have a better version let me know....
i hope you will enjoy my version ....have  fun

Tabbed by:jbob
Email:squat_1974@hotmail.com

Tuning:drop c

RIFF 1
INTRO
e|--9-9--14------------12---------9-------------------7-5-4-----|
B|-----------12-12-12------10-10----9-9-9-10--12--9----------7--|
G|--------------------------------------------------------------|
D|--------------------------------------------------------------|
A|--------------------------------------------------------------|
E|--------------------------------------------------------------|

RIFF 2
play 2 time
    pm---------------------------------------------------------------|
e|-------------------------------------------------------------------|
B|-------------------------------------------------------------------|
G|-------------------------------------------------------------------|
D|---10--10----10--10--------8--8-------6--6-------------------------|
A|---10--10----10--10--------8--8-------6--6-------------------------|
E|---10--10----10--10--------8--8-------6--6-------------------------|

RIFF 3
  PM ----------------------------------------------------------------------|
e|-------------------------------------------------------------------------|
B|-------------------------------------------------------------------------|
G|-------------------------------------------------------------------------|
D|------------------------------------1---0----------1---------------------|
A|-7-7---8---7---7-7---8---7---5-5------2-----3-3------0--3----------------|
E|-7-7-----9-----7-7-----9-----5-5------------3-3--------------------------|

RIFF 4
 distortion
   let ring---
e|-------------------------------------------------------------------|
B|-------------------------------------------------------------------|
G|-------------------------------------------------------------------|
D|--5-----6------2222222-4-5555555---44444444-555555-----------------|
A|--5-----6------2222222-4-5555555-0-22222222-333333--22-------------|
E|--5-----6------2222222-4-5555555-----------------------------------|

e|-------------------------------------------------------------------------|
B|-------------------------------------------------------------------------|
G|-------------------------------------------------------------------------|
D|---------2222222-4-5555555---44444444-55555555---------------------------|
A|---------2222222-4-5555555-0-22222222-33333333---------------------------|
E|---------2222222-4-5555555-----------------------------------------------|

RIFF 5
   pm--------------------------------------------------|
e|-----------------------------------------------------|
B|-----------------------------------------------------|
G|-----------------------------------------------------|
D|-555---55---555---55---333---33---111--11------------|
A|-555---55---555---55---333---33---111--11------------|
E|-555---55---555---55---333---33---111--11------------|

RIFF 6
   pm ------   ------------------------------------------------------------|
e|-------------------------------------------------------------------------|
B|-------------------------------------------------------------------------|
G|-------------------------------------------------------------------------|
D|-555-555--55---555-555--55---333-333--33---111-111-11--------------------|
A|-555-555--55---555-555--55---333-333--33---111-111-11--------------------|
E|-555-555--55---555-555--55---333-333--33---111-111-11--------------------|

RIFF 4
 distortion
   let ring---
e|-------------------------------------------------------------------|
B|-------------------------------------------------------------------|
G|-------------------------------------------------------------------|
D|--5-----6------2222222-4-5555555---44444444-555555-----------------|
A|--5-----6------2222222-4-5555555-0-22222222-333333--22-------------|
E|--5-----6------2222222-4-5555555-----------------------------------|

e|-------------------------------------------------------------------------|
B|-------------------------------------------------------------------------|
G|-------------------------------------------------------------------------|
D|---------2222222-4-5555555---44444444-5555-------------------------------|
A|---------2222222-4-5555555-0-22222222-3333-------------------------------|
E|---------2222222-4-5555555-----------------------------------------------|


RIFF 7
e|-------------------------------------------------------------------|
B|--5--7--8--7--5--7--3---7--5---5--7--8--7--5--7--3---7--5--5--7--8-|
G|-------------------------------------------------------------------|
D|-------------------------------------------------------------------|
A|-------------------------------------------------------------------|
E|-------------------------------------------------------------------|

INTERLUDE PIANO PART

RIFF 4
 distortion
   let ring---
e|------------------------------------------------------------|
B|------------------------------------------------------------|
G|------------------------------------------------------------|
D|--------2222222-4-5555555---44444444-555555-----------------|
A|--------2222222-4-5555555-0-22222222-333333--22-------------|
E|--------2222222-4-5555555-----------------------------------|

e|-------------------------------------------------------------------------|
B|-------------------------------------------------------------------------|
G|-------------------------------------------------------------------------|
D|---------2222222-4-5555555---44444444-5555-------------------------------|
A|---------2222222-4-5555555-0-22222222-3333-------------------------------|
E|---------2222222-4-5555555-----------------------------------------------|


RIFF 7
OUTRO
e|------------------------------------------------------------|
B|--5--7--8--7--5--7--3---7--5---5--7--8--7--5--7--3---7--5---|
G|------------------------------------------------------------|
D|------------------------------------------------------------|
A|------------------------------------------------------------|
E|------------------------------------------------------------|


                        let ring  fade out
e|-------------------------------------------------------------------------|
B|---5----7----1----0------------------------------------------------------|
G|-------------------------------------------------------------------------|
D|-----------------------2-------------------------------------------------|
A|-----------------------2-------------------------------------------------|
E|-----------------------2-------------------------------------------------|
comments
print report bad tab
I want to post or [tab]
guest
You may want to rate the tab now too:
select rating
Please do not post tabs as comments. Select "correction" instead!