Oops, an error
Loading. Please wait.

I Dont Care Tab

version 5
version 5

Interactive

2,381 views 1 this week
no commentswrite comment
1 2 3 4 5
please rate
add to favorites
launch autoscroll
font size
0
reset
how to read this tab
guitar tuner
Autoscroll
slow
fast
+/-
esc
set tempo
stop
Help us to improve Ultimate-Guitar.com Take our survey!
×
Author
The drop D version.

Intro
Lead
|-------------------13------------------------------11------------------9----|
|------13-----13-----------11-----11-----11---11-----------9------9----------|
|----------------------------------------------------------------------------|
|----------------------------------------------------------------------------|
|----------------------------------------------------------------------------|
|----------------------------------------------------------------------------|


|----------------------------------------------------------------------------|
|--8------8------8----8-----9------11-----9----------11-----9------8------6--|
|----------------------------------------------------------------------------|
|----------------------------------------------------------------------------|
|----------------------------------------------------------------------------|
|----------------------------------------------------------------------------|

Verse 1 - x2
Lead
|----------------------------------------------------------------------------|
|--6-------------8--9-----------------8-----------------6--------------------|
|----------------------------------------------------------------------------|
|----------------------------------------------------------------------------|
|----------------------------------------------------------------------------|
|----------------------------------------------------------------------------|

Rhythm(palm muted)
|----------------------------------------------------------------------------|
|----------------------------------------------------------------------------|
|----------------------------------------------------------------------------|
|----------------------------------------------------------------------------|
|--------------------------------------------------------4--4----------------|
|--3--3--------------3--3--------------1--1----------------------------------|


End of Verse 1
Lead
|----------------------------------------------------------------------------|
|--3--------------5--6-----------------5-----------------3-------------------|
|----------------------------------------------------------------------------|
|----------------------------------------------------------------------------|
|----------------------------------------------------------------------------|
|----------------------------------------------------------------------------|

Rhythm(palm muted)
|----------------------------------------------------------------------------|
|-------1-----------------1--------------------------------------------------|
|----------3--3--2-----------3--3--2---------------------1--1----------------|
|-------------------------------------------------3----------------0--3------|
|--------------------------------------3--3----1-----0----------1------------|
|--0--0--------------0--0----------------------------------------------------|

Lead
|----------------------------------------------------------------------------|
|--3--------------5--6-----------------5-----------------3--------------5--6-|
|----------------------------------------------------------------------------|
|----------------------------------------------------------------------------|
|----------------------------------------------------------------------------|
|----------------------------------------------------------------------------|
                                                                              
muted)
|----------------------------------------------------------------------------|
|-------1-----------------1--------------------------------------------------|
|----------3--3--2-----------3--3--2---------------------1--1----------------|
|-------------------------------------------------3----------------0--3------|
|--------------------------------------3--3----1-----0----------1------------|
|--0--0--------------0--0----------------------------------------------------|


Chorus(Distorted)
|----------------------------------------------------------------------------|
|----------------------------------------------------------------------------|
|----------------------------------------------------------------------------|
|--0-0-0-0-0-0-0--2--3-3-3-3-3-3-3--5--7-7-7-7-7-7-7-7--8-8-8-8-8-8--7-7-----|
|--0-0-0-0-0-0-0--2--3-3-3-3-3-3-3--5--7-7-7-7-7-7-7-7--8-8-8-8-8-8--7-7-----|
|--0-0-0-0-0-0-0--2--3-3-3-3-3-3-3--5--7-7-7-7-7-7-7-7--8-8-8-8-8-8--7-7-----|


|----------------------------------------------------------------------------|
|----------------------------------------------------------------------------|
|----------------------------------------------------------------------------|
|--0-0-0-0-0-0-0--2--3-3-3-3-3-3-3--5--7-7-7-7-7-7-7-7--8-8-8-8-8-8-8-8---3--|
|--0-0-0-0-0-0-0--2--3-3-3-3-3-3-3--5--7-7-7-7-7-7-7-7--8-8-8-8-8-8-8-8---3--|
|--0-0-0-0-0-0-0--2--3-3-3-3-3-3-3--5--7-7-7-7-7-7-7-7--8-8-8-8-8-8-8-8---3--|


Fill between Chorus and Second Verse
Lead
|-------------------13------------------------------11------------------9----|
|------13-----13-----------11-----11-----11---11-----------9------9----------|
|----------------------------------------------------------------------------|
|----------------------------------------------------------------------------|
|----------------------------------------------------------------------------|
|----------------------------------------------------------------------------|


|----------------------------------------------------------------------------|
|--8------8------8----8-----9------11-----9----------11-----9------8------6--|
|----------------------------------------------------------------------------|
|----------------------------------------------------------------------------|
|----------------------------------------------------------------------------|
|----------------------------------------------------------------------------|

Verse 2(Distorted & palm muted)
|----------------------------------------------------------------------------|
|----------------------------------------------------------------------------|
|----------------------------------------------------------------------------|
|----------------------------------------5-5-5---------5-5--3-3-3-------3-3\-|
|--0-0-0---------0-0--0-0-0---------0-0--3-3-3---------3-3--1-1-1-------1-1\-|
|--0-0-0---------0-0--0-0-0---------0-0--------------------------------------|


|----------------------------------------------------------------------------|
|----------------------------------------------------------------------------|
|----------------------------------------------------------------------------|
|----------------------------------------5-5-5--5-5-5--5-5--3-3-3--3-3-3--3-3|
|--0-0-0--0-0-0--0-0--0-0-0--0-0-0--0-0--3-3-3--3-3-3--3-3--1-1-1--1-1-1--1-1|
|--0-0-0--0-0-0--0-0--0-0-0--0-0-0--0-0--------------------------------------|

Fill 2 (Distorted)
|----------------------------------------------------------------------------|
|----------------------------------------------------------------------------|
|----------------------------------------------------------------------------|
|--7-----------------8-------------------------------------------------------|
|--5-----------------6-------------------------------------------------------|
|----------------------------------------------------------------------------|

Chorus(Distorted)
|----------------------------------------------------------------------------|
|----------------------------------------------------------------------------|
|----------------------------------------------------------------------------|
|--0-0-0-0-0-0-0--2--3-3-3-3-3-3-3--5--7-7-7-7-7-7-7-7--8-8-8-8-8-8--7-7-----|
|--0-0-0-0-0-0-0--2--3-3-3-3-3-3-3--5--7-7-7-7-7-7-7-7--8-8-8-8-8-8--7-7-----|
|--0-0-0-0-0-0-0--2--3-3-3-3-3-3-3--5--7-7-7-7-7-7-7-7--8-8-8-8-8-8--7-7-----|


|----------------------------------------------------------------------------|
|-----------------------------------------------------------------3--5-------|
|----------------------------------------------------------------------------|
|----------------------------------------------------------------------------|
|----------------------------------------------------------------------------|
|----------------------------------------------------------------------------|


|----------------------------------------------------------------------------|
|----------------------------------------------------------------------------|
|----------------------------------------------------------------------------|
|--0-0-0-0-0-0-0--2--3-3-3-3-3-3-3--5--7-7-7-7-7-7-7-7--8-8-8-8-8-8--7-7-----|
|--0-0-0-0-0-0-0--2--3-3-3-3-3-3-3--5--7-7-7-7-7-7-7-7--8-8-8-8-8-8--7-7-----|
|--0-0-0-0-0-0-0--2--3-3-3-3-3-3-3--5--7-7-7-7-7-7-7-7--8-8-8-8-8-8--7-7-----|


|--1-------0--------0-----------0-------------------------------1------------|
|----------------3------1------------3----------------3----------------------|
|----------------------------------------------------------------------------|
|----------------------------------------------------------------------------|
|----------------------------------------------------------------------------|
|----------------------------------------------------------------------------|


Bridge(Distorted)
|----------------------------------------------------------------------------|
|----------------------------------------------------------------------------|
|----------------------------------------------------------------------------|
|------------------------------------3-3-3-3-3-3-3-3-------------------------|
|--0-0-0-0-0-0-0-0--3-3-3-3-3-3-3-3--1-1-1-1-1-1-1-1--5-5-5-5-5-5--7-7-------|
|--0-0-0-0-0-0-0-0--3-3-3-3-3-3-3-3-------------------5-5-5-5-5-5--7-7-------|


|--1-------0--------0-----------0-------------------------------0------------|
|----------------3------1------------3----------------3----------------------|
|----------------------------------------------------------------------------|
|----------------------------------------------------------------------------|
|----------------------------------------------------------------------------|
|----------------------------------------------------------------------------|


|----------------------------------------------------------------------------|
|----------------------------------------------------------------------------|
|----------------------------------------------------------------------------|
|------------------------------------3-3-3-3-3-3-3-3--5-5-5-5-5-5-5-5--7-----|
|--0-0-0-0-0-0-0-0--3-3-3-3-3-3-3-3--1-1-1-1-1-1-1-1--3-3-3-3-3-3-3-3--5-----|
|--0-0-0-0-0-0-0-0--3-3-3-3-3-3-3-3------------------------------------------|


Piano - x3
|--20h22--18h20--17h21--15h17--13h15--12h13--10h12--8h10--6h8--5h6--3h5------|
|----------------------------------------------------------------------------|
|----------------------------------------------------------------------------|
|----------------------------------------------------------------------------|
|----------------------------------------------------------------------------|
|----------------------------------------------------------------------------|


then
|--3h5--5h6--6h8--8h10--10h12--12h13--13h15--15h17--17h18--20--20h22--17-----|
|----------------------------------------------------------------------------|
|----------------------------------------------------------------------------|
|----------------------------------------------------------------------------|
|----------------------------------------------------------------------------|
|----------------------------------------------------------------------------|

Chorus(Distorted)
|----------------------------------------------------------------------------|
|----------------------------------------------------------------------------|
|----------------------------------------------------------------------------|
|--0-0-0-0-0-0-0--2--3-3-3-3-3-3-3--5--7-7-7-7-7-7-7-7--8-8-8-8-8-8--7-7-----|
|--0-0-0-0-0-0-0--2--3-3-3-3-3-3-3--5--7-7-7-7-7-7-7-7--8-8-8-8-8-8--7-7-----|
|--0-0-0-0-0-0-0--2--3-3-3-3-3-3-3--5--7-7-7-7-7-7-7-7--8-8-8-8-8-8--7-7-----|


|----------------------------------------------------------------------------|
|----------------------------------------------------------------------------|
|----------------------------------------------------------------------------|
|--0-0-0-0-0-0-0--2--3-3-3-3-3-3-3--5--7-7-7-7-7-7-7-7--8-8-8-8-8-8--7-7-----|
|--0-0-0-0-0-0-0--2--3-3-3-3-3-3-3--5--7-7-7-7-7-7-7-7--8-8-8-8-8-8--7-7-----|
|--0-0-0-0-0-0-0--2--3-3-3-3-3-3-3--5--7-7-7-7-7-7-7-7--8-8-8-8-8-8--7-7-----|


Chorus 2(Distorted)
|----------------------------------------------------------------------------|
|----------------------------------------------------------------------------|
|----------------------------------------------------------------------------|
|--0-0-0-0-0-0-0-0--3-3-3-3-3-3-3-3--7-7-7-7-7-7-7-7--8-8-8-8-8-8--7-7-------|
|--0-0-0-0-0-0-0-0--3-3-3-3-3-3-3-3--7-7-7-7-7-7-7-7--8-8-8-8-8-8--7-7-------|
|--0-0-0-0-0-0-0-0--3-3-3-3-3-3-3-3--7-7-7-7-7-7-7-7--8-8-8-8-8-8--7-7-------|

|----------------------------------------------------------------------------|
|----------------------------------------------------------------------------|
|----------------------------------------------------------------------------|
|--0-0-0-0-0-0-0-0--3-3-3-3-3-3-3-3--7-7-7-7-7-7-7-7--8-8-8-8-8-8-8-8--8--0--|
|--0-0-0-0-0-0-0-0--3-3-3-3-3-3-3-3--7-7-7-7-7-7-7-7--8-8-8-8-8-8-8-8--8--0--|
|--0-0-0-0-0-0-0-0--3-3-3-3-3-3-3-3--7-7-7-7-7-7-7-7--8-8-8-8-8-8-8-8--8--0--|
Suggest correction
Give kudos to tab author, rate the tab!
1 2 3 4 5
comments
print report bad tab
guest
You may want to rate the tab now too:
select rating
Wanna post a correction for this tab? Suggest correction