Oops, an error
Loading. Please wait.

I Dont Care Tab

version 6
version 6

Interactive

1,034 views 1 this week
no commentswrite comment
1 2 3 4 5
3 more votes to show rating
add to favorites
launch autoscroll
font size
0
reset
how to read this tab
guitar tuner
Autoscroll
slow
fast
+/-
esc
set tempo
stop
Help us to improve Ultimate-Guitar.com Take our survey!
×
Author
Difficulty
Tuning
novice
D A D G B E
This songs really awesome if you like kinda a slow rhythm then you may wanna learn this 
I used drop D tuning and it sounds right. Dont worry ive got the whole thing so have fun 
heres what you'll need to play it:

h-Hammer on
*palm mute


intro riff after the strings play

e|--------------------------------------------------------------------------|
B|--------------------------------------------------------------------------|
G|--------------------------------------------------------------------------|
D|--------------------------------------------------------------------------|
A|0-0-0-0-0-0-0h1-3-3-3-3-3-3-3-7-7-7-7-7-7-7-7-8-8-8-8-8-8-8-8-8-8-7-------|
D|0-0-0-0-0-0-0h1-3-3-3-3-3-3-3-7-7-7-7-7-7-7-7-8-8-8-8-8-8-8-8-8-8-7-------|

e|--------------------------------------------------------------------------|
B|--------------------------------------------------------------------------|
G|--------------------------------------------------------------------------|
D|--------------------------------------------------------------------------|
A|0-0-0-0-0-0-0h1-3-3-3-3-3-3-3-7-7-7-7-7-7-7-7-8-8-8-8-8-8-8-8-8-8-7-0-----|
D|0-0-0-0-0-0-0h1-3-3-3-3-3-3-3-7-7-7-7-7-7-7-7-8-8-8-8-8-8-8-8-8-8-7-0-----|

The strings play again but only for a couple seconds
note:(listen to strumming and it may be hard to listen to it bcuz the strings make it 
like the palm mutes are on frets but they are not)

e|-------------------------------------------||-----------------------------|
B|-------------------------------------------||-----------------------------|
G|-------------------------------------------||-----------------------------|
D|-------------------------------------------||-----------------------------|
A|000-000-0-000-000-0-000-000-0-000-000-00---||10(sustain)-11(sustain)------|
D|000-000-0-000-000-0-000-000-0-000-000-00-x2||10(sustain)-11(sustain)------|
  *** ***   *** ***   *** ***   *** ***

e|--------------------------------------------------------------------------|
B|--------------------------------------------------------------------------|
G|--------------------------------------------------------------------------|
D|--------------------------------------------------------------------------|
A|0-0-0-0-0-0-0h1-3-3-3-3-3-3-3-7-7-7-7-7-7-7-7-8-8-8-8-8-8-8-8-8-7---------|
D|0-0-0-0-0-0-0h1-3-3-3-3-3-3-3-7-7-7-7-7-7-7-7-8-8-8-8-8-8-8-8-8-7---------|x2

This riff is slightly different from the main riff in the song

e|-----------------------------------------------------||-------------------|
B|-----------------------------------------------------||-------------------|
G|-----------------------------------------------------||-------------------|
D|-----------------------------------------------------||-------------------|
A|0-0-0-0-0-0-0-3-3-3-3-3-3-3-7-7-7-7-7-7-7-5-5-5-5-5--||0(sustain)---------|
D|0-0-0-0-0-0-0-3-3-3-3-3-3-3-7-7-7-7-7-7-7-5-5-5-5-5x2||0(sustain)---------|

The keyboardist or pianoist plays now and then this final riff comes in

e|---------------------------------------------------------------||---------|
B|---------------------------------------------------------------||---------|
G|---------------------------------------------------------------||---------|
D|---------------------------------------------------------------||---------|
A|0-0-0-0-0-0-0h1-3-3-3-3-3-3-3-7-7-7-7-7-7-7-7-8-8-8-8-8-8-8-8--||7-0------|
D|0-0-0-0-0-0-0h1-3-3-3-3-3-3-3-7-7-7-7-7-7-7-7-8-8-8-8-8-8-8-8x2||7-0------|
Suggest correction
Give kudos to tab author, rate the tab!
1 2 3 4 5
comments
print report bad tab
guest
You may want to rate the tab now too:
select rating
Wanna post a correction for this tab? Suggest correction