Oops, an error
Loading. Please wait.

I Dont Care Tab

version 7
version 7

Interactive

919 views 1 this week
no commentswrite comment
1 2 3 4 5
please rate
add to favorites
launch autoscroll
font size
0
reset
how to read this tab
guitar tuner
Autoscroll
slow
fast
+/-
esc
set tempo
stop
Help us to improve Ultimate-Guitar.com Take our survey!
×
Difficulty
novice
-------------------------------------------------------------------------------
                             I Don't Care - Apocalyptica
-------------------------------------------------------------------------------
Tabbed by: Dauk
Email: dauk79@hotmail.com

Tuning: CGCFAD

Intro/First Verse (Clean):

D|---------------------------------------------------------------------------|
A|---------------------------------------------------------------------------|
F|---------------------------------------------------------------------------|
C|---------------------------------------------------------------------------|
G|---------------------------------------------------------------------------|
C|--5-5--5-5--3-3--1-1--5-5--5-5--3-3--1-1--2-2--10-10-9-9--2-2--10-10-9-9--
-

D|---------------------------------------------------------------------------|
A|---------------------------------------------------------------------------|
F|---------------------------------------------------------------------------|
C|---------------------------------------------------------------------------|
G|---------------------------------------------------------------------------|
C|--7-7--10-10-9-9--5-5--10-10-9-9--2-2--10-10-9-9--2-2--10-10-9-9--7-7--10--|

D|---------------------------------------------------------------------------|
A|---------------------------------------------------------------------------|
F|---------------------------------------------------------------------------|
C|---------------------------------------------------------------------------|
G|---------------------------------------------------------------------------|
C|--7-7--10-10-9-9--5-5--10-10-9-9--2-2--10-10-9-9--2-2--10-10-9-9--7-7--10--|

D|---------------------------------------------------------------------------|
A|---------------------------------------------------------------------------|
F|---------------------------------------------------------------------------|
C|---------------------------------------------------------------------------|
G|---------------------------------------------------------------------------|
C|-10--9-9--5-5--10-10-9-9---------------------------------------------------|


Chorus (Distortion):

D|---------------------------------------------------------------------------|
A|---------------------------------------------------------------------------|
F|---------------------------------------------------------------------------|
C|---------------------------------------------------------------------------|
G|--2-2-2-2-2-2-2-2-5-5-5-5-5-5-5-5-9-9-9-9-9-9-9-9-10-10-10-10-10-10-9-9----|
C|--2-2-2-2-2-2-2-2-5-5-5-5-5-5-5-5-9-9-9-9-9-9-9-9-10-10-10-10-10-10-9-9----


D|---------------------------------------------------------------------------|
A|---------------------------------------------------------------------------|
F|---------------------------------------------------------------------------|
C|---------------------------------------------------------------------------|
G|-2-2-2-2-2-2-2-2-5-5-5-5-5-5-5-5-9-9-9-9-9-9-9-9-10-10-10-10-10-10-9-9-5~--|
C|-2-2-2-2-2-2-2-2-5-5-5-5-5-5-5-5-9-9-9-9-9-9-9-9-10-10-10-10-10-10-9-9-5~-


Verse 2: 

D|---------------------------------------------------------------------------|
A|---------------------------------------------------------------------------|
F|---------------------------------------------------------------------------|
C|---------------------------------------------------------------------------|
G|--2-2-2--x-x---2-2-2---2-2-2--x-x---2-2-2---0-0-0--x-x--0-0-0---10-10-10---|
C|--2-2-2--x-x---2-2-2---2-2-2--x-x---2-2-2---0-0-0--x-x--0-0-0---10-10-10---


D|---------------------------------------------------------------------------|
A|---------------------------------------------------------------------------|
F|---------------------------------------------------------------------------|
C|---------------------------------------------------------------------------|
G|--x-x--10-10-10---9-9---2-2-2--x-x---2-2-2---2-2-2--x-x---2-2-2---0-0-0----|
C|--x-x--10-10-10---9-9---2-2-2--x-x---2-2-2---2-2-2--x-x---2-2-2---0-0-0----


D|---------------------------------------------------------------------------|
A|---------------------------------------------------------------------------|
F|---------------------------------------------------------------------------|
C|---------------------------------------------------------------------------|
G|-x-x--0-0-0---10-10-10--9--4-4-4-4-5-5-5-----------------------------------|
C|-x-x--0-0-0---10-10-10--9--4-4-4-4-5-5-5-----------------------------------

(Repeat Chorus X2)

************************************

| /   slide up
| \   slide down
| h   hammer-on
| p   pull-off
| ~   vibrato
| +   harmonic
| x   Mute note
| b   Bend
| pb  Pre-bend
| br  Bend release
| pbr Pre-bend release
| brb Bend release bend

************************************
Suggest correction
What's this?
You can suggest a correction to this tab. Community and Mods will review your correction and vote to approve or reject it.
comments
We did not receive enough feedback on this tab! Please rate:
print report bad tab
1 2 3 4 5
guest
You may want to rate the tab now too:
select rating
Please do not post tabs as comments. Select "correction" instead!