Oops, an error
Loading. Please wait.

Im Not Jesus Bass Tab

version 1
version 1

Whole song

Interactive

5,719 views 3 this week
no commentswrite comment
1 2 3 4 5
1 last vote to show rating
add to favorites
launch autoscroll
font size
0
reset
guitar tuner
Autoscroll
slow
fast
+/-
esc
set tempo
stop
Help us to improve Ultimate-Guitar.com Take our survey!
×
hey I know its  not the best tabbing in the world but it sounds right please send 
good or bad my e-mail is slowdeath21@yahoo.com

Riff A
G|------------------|
D|------------------|
A|------------------|
E|-7-9-9-7-9-9-10---|

Riff B
G|-------------|
D|-------------|
A|-7-9-9-9-9---|
E|-------------|

Riff C
G|-------------|
D|-------------|
A|-------------|
E|-9-7-5-4-----|

Riff D
G|-----------------------------------------------------------------------|
D|-----------------------------------------------------------------------|
A|-----------------7-7-7-7-7-7-7-9-----------------11-11-11-11-11-11-11-9|
E|-9-9-9-9-9-9-9-9-----------------9-9-9-9-9-9-9-9-----------------------|

Riff E
G|--------------|
D|--------------|
A|--------9-9---|
E|-4-5-5-----9--|


Song Play Order
A x12, B x3, C x2, A x8, B x4, A x2, C x2, D x2, B x4, A x2, C x2, E

Thats all of it hope it works out for you ^^ Peace
Suggest correction
Give kudos to tab author, rate the tab!
1 2 3 4 5
comments
print report bad tab
guest
You may want to rate the tab now too:
select rating
Wanna post a correction for this tab? Suggest correction