Oops, an error
Loading. Please wait.

Im Not Jesus Tab

version 4
version 4

Whole song

Interactive

1,181 views 1 this week
1 commentread comment
1 2 3 4 5
please rate
add to favorites
launch autoscroll
font size
0
reset
how to read this tab
guitar tuner
Autoscroll
slow
fast
+/-
esc
set tempo
stop
Help us to improve Ultimate-Guitar.com Take our survey!
×
Author
Difficulty
Tuning
intermediate
B F# B E G# C#
-----------------------------------------------------------------------------
                 Apocalyptica - I'm Not Jesus (feat. Corey Taylor)
-----------------------------------------------------------------------------

Tabbed by: Metalrock4ever

Tuning: BFBEGC

Intro:
C|---------------------------------------|
G|-9999------11111111-9999------11111111-|  <- these are 11's
E|------9999---------------9999----------|
B|---------------------------------------|
F|---------------------------------------|
B|---------------------------------------|


Verse: 
C|-----------------------------------------------------|
G|-9999----1111-9999----1111-9999----1111-9999----1111-|
E|------99-----------99-----------99-----------99------|
B|-----------------------------------------------------|
F|-----------------------------------------------------|
B|-----------------------------------------------------|


Pre-Chorus:
C|---------------------|
G|-----------1010/1111-|
E|---------------------|
B|-3h7-7-5-7-----------| x3
F|-3h7-7-5-7-----------|
B|-3h7-7-5-7-----------|


Chorus:
C|---------------------|
G|---------------------|
E|---------------------|
B|-2~-12~-10~-9~-10-12-|  x2
F|-2~-12~-10~-9~-10-12-|
B|-2~-12~-10~-9~-10-12-|

Solo Part:
C|------10101010-10101010-15~-10~-12~-----|
G|------------------------------------12~-|
E|-9999-----------------------------------|
B|----------------------------------------|
F|----------------------------------------|
B|----------------------------------------|

C|------10101010-10101010-15~-10~-12~------|
G|------------------------------------12b~-|
E|-9999------------------------------------|
B|-----------------------------------------|
F|-----------------------------------------|
B|-----------------------------------------|


Post-Chorus:
C|---------------------|
G|---------------------|
E|---------------------|
B|-0h2-2-2-0h2-2-2h3-3-|  x4
F|-0h2-2-2-0h2-2-2h3-3-|
B|-0h2-2-2-0h2-2-2h3-3-|

Solo Part:
C|-------|
G|-12b+~-|
E|-------|
B|-------|
F|-------|
B|-------|


Verse 2:
C|-----------------------------------------------------|
G|-9999----1111-9999----1111-9999----1111-9999----1111-|
E|------99-----------99-----------99-----------99------|
B|-----------------------------------------------------|
F|-----------------------------------------------------|
B|-----------------------------------------------------|


Pre-Chorus:
C|---------------------|
G|-----------1010/1111-|
E|---------------------|
B|-3h7-7-5-7-----------| x3
F|-3h7-7-5-7-----------|
B|-3h7-7-5-7-----------|

C|---------------------|
G|---------------------|
E|---------------------|
B|-0h2-2-2-0h2-2-2h3-3-|  x2
F|-0h2-2-2-0h2-2-2h3-3-|
B|-0h2-2-2-0h2-2-2h3-3-|

Solo Part:
C|-------|
G|-12b+~-|
E|-------|
B|-------|
F|-------|
B|-------|


Chorus 2:
C|---------------------|
G|---------------------|
E|---------------------|
B|-2~-12~-10~-9~-10-12-|  x2
F|-2~-12~-10~-9~-10-12-|
B|-2~-12~-10~-9~-10-12-|

Solo Part:
C|------10101010-10101010-15~-10~-12~-----|
G|------------------------------------12~-|
E|-9999-----------------------------------|
B|----------------------------------------|
F|----------------------------------------|
B|----------------------------------------|

C|------10101010-10101010-15~-10~-12~------|
G|------------------------------------12b~-|
E|-9999------------------------------------|
B|-----------------------------------------|
F|-----------------------------------------|
B|-----------------------------------------|


Bridge:
C|------------------------------------------|
G|------------------------------------------|
E|------------------------------------------|
B|-2222-2222-5555-55h7--2222-2222-5555-4444-|  x2
F|-2222-2222-5555-55h7--2222-2222-5555-4444-|
B|-2222-2222-5555-55h7--2222-2222-5555-4444-|

Solo Part:
C|---------------------|
G|-12b~-12b~-12b~-12b~-|
E|---------------------|
B|---------------------|
F|---------------------|
B|---------------------|


Pre-Chorus:
C|---------------------|
G|-----------1010/1111-|
E|---------------------|
B|-3h7-7-5-7-----------| x3
F|-3h7-7-5-7-----------|
B|-3h7-7-5-7-----------|

C|---------------------|
G|---------------------|
E|---------------------|
B|-0h2-2-2-0h2-2-2h3-3-|  x2
F|-0h2-2-2-0h2-2-2h3-3-|
B|-0h2-2-2-0h2-2-2h3-3-|

Solo Part:
C|-------|
G|-12b+~-|
E|-------|
B|-------|
F|-------|
B|-------|


Final Chorus:
C|---------------------|
G|---------------------|
E|---------------------|
B|-2~-12~-10~-9~-10-12-|  x2
F|-2~-12~-10~-9~-10-12-|
B|-2~-12~-10~-9~-10-12-|

Then...
C|----------|
G|----------|
E|----------|
B|-9~-10-12-|
F|-9~-10-12-|
B|-9~-10-12-|

Solo Part:
C|------10101010-10101010-15~-10~-12~-----|
G|------------------------------------12~-|
E|-9999-----------------------------------|
B|----------------------------------------|
F|----------------------------------------|
B|----------------------------------------|

C|------10101010-10101010-15~-10~-12~------15~-10~-12~-----|
G|------------------------------------12b~-------------12~-|
E|-9999----------------------------------------------------|
B|---------------------------------------------------------|
F|---------------------------------------------------------|
B|---------------------------------------------------------|


Outro:
C|--------------------------------|
G|--------------------------------|
E|--------------------------------|
B|-10101010-10101010-7777-7777-2~-|
F|-10101010-10101010-7777-7777-2~-|
B|-10101010-10101010-7777-7777-2~-|

Solo Part:
C|-----------12b~-----|
G|-12b~-12b~-10b~-12~-|
E|----------------9~--|
B|--------------------|
F---------------------|
B|--------------------|

************************************

| /   slide up
| \   slide down
| h   hammer-on
| ~   vibrato
| +   harmonic
| x   Mute note
| b   Bend

************************************

If you have any comments/corrections, please say in either the comments box or 
leave me a message. Good luck and enjoy!
Suggest correction new What's this?
You can suggest a correction to this tab. Community and Mods will review your correction and vote to approve or reject it.
comments
We did not receive enough feedback on this tab! Please rate:
print report bad tab
1 2 3 4 5
1 comment total.
0 reply
MetalSaint 986 wrote on October 14 2012, 08:50 am

Awesome! Thanks mate! :D

guest
You may want to rate the tab now too:
select rating
Please do not post tabs as comments. Select "correction" instead!