Oops, an error
Loading. Please wait.

Cambodia Tab

1,040 views 1 this week
no commentswrite comment
1 2 3 4 5
please rate
add to favorites
launch autoscroll
font size
0
reset
how to read this tab
guitar tuner
Autoscroll
slow
fast
+/-
esc
set tempo
stop
Help us to improve Ultimate-Guitar.com Take our survey!
×
Author
Difficulty
-------------------------------------------------------------------------------
                      Cambodia  -  Apoptygma Berzerk
-------------------------------------------------------------------------------
Tabbed by: Martin Messner
Email: bigbonsai@hotmail.de

Tuning: E - Standard

//////////////////////////////////////////////
//                                          //
//  RATING THIS TAB TAKES ABOUT 5 SECONDS   //
//  AND HELPS ME TO IMPROVE MY WORK         //
//                                          //
//////////////////////////////////////////////


[INTRO]

Guitar Strumming Intro|  Drumsounds (sounds like it)  
e|--------------------|------------------------------|
B|--------------------|------------------------------|
G|--------------------|------------------------------|
D|---4-4-4-4-4-4-4-4--|------------------------------|
A|---4-4-4-4-4-4-4-4--|--4--7--4--7--4--7------------|
E|---2-2-2-2-2-2-2-2--|------------------------------|
     guitar            


synth melody (Intro and sometimes in the song)
e|------/7--5------/7--5----/7--5----/7-|
B|--------------------------------------|
G|---6-6-------6-6-------6-6------6-6---|
D|--------------------------------------|
A|--------------------------------------|
E|--------------------------------------|

.................................................................................


synth melody & quiet guitar
e|------------------------------------------------------------------||
B|------------------------------------------------------------------||
G|--7-7-7-7-6-6-6-6-4-4-4-4---------7-7-7-7-6-6-6-6-4-4---4-4---6---||
D|--------------------------7-7-7-7---------------------7-----7-----||
A|------------------------------------------------------------------||
E|------------------------------------------------------------------||
                                                                     |
e|------------------------------------------------------------------||
B|------------------------------------------------------------------||
G|------------------------------------------------------------------||
D|--------4---------------6-------7-----------------------6-------7-||
A|----------------------------------------7-------------------------||
E|------------------------------------------------------------------||



e|------------------------------------------------------------------||
B|--6-6-6-6-4-4-4-4---------4-4-4-4-6-6-7-6-4-4-4-4---------4-4-4-4-||
G|------------------7-7-7-7-------------------------7-7-7-7---------||
D|------------------------------------------------------------------||
A|------------------------------------------------------------------||
E|------------------------------------------------------------------||
                                                                     |
e|------------------------------------------------------------------||
B|------------------------------------------------------------------||
G|------------------------------------------------------------------||
D|------------------------6-------7-------4-------------------6-----||
A|--------7-------------------------------------------------------7-|| guitar keeps repeating
E|------------------------------------------------------------------||


..................................................................................
[VERSES]

guitar shredding
e|-------------------------------------------------------------------|
B|-------------------------------------------------------------------|
G|---------------------------------------------------4-4-4-4---------|
D|---4-4-4-4-4-4-4-4-7-7-7-7-7-7-7-7-2-2-2-2-2-2-2-2-4-4-4-4-2-2-2-2-|
A|---4-4-4-4-4-4-4-4-7-7-7-7-7-7-7-7-2-2-2-2-2-2-2-2-2-2-2-2-2-2-2-2-|
E|---2-2-2-2-2-2-2-2-5-5-5-5-5-5-5-5-0-0-0-0-0-0-0-0---------0-0-0-0-|





..................................................................................
[CHORUS]

"Flying to Cambodiaaaaaa"


synth melody
e|--9--5--------4-5---5--14-12------------------------------------|
B|-------7----7-----7------------14------15-14-12----12-14--------|
G|----------------------------------14------------14-------14-11--|
D|----------------------------------------------------------------|
A|----------------------------------------------------------------|
E|----------------------------------------------------------------|

That's pretty much it ;D
Enjoy
Martin
Suggest correction
What's this?
You can suggest a correction to this tab. Community and Mods will review your correction and vote to approve or reject it.
comments
We did not receive enough feedback on this tab! Please rate:
print report bad tab
1 2 3 4 5
guest
You may want to rate the tab now too:
select rating
Please do not post tabs as comments. Select "correction" instead!