Oops, an error
Loading. Please wait.

Until The End Of The World Tab

2,373 views 1 this week
no commentswrite comment
1 2 3 4 5
please rate
add to favorites
launch autoscroll
font size
0
reset
how to read this tab
guitar tuner
Autoscroll
slow
fast
+/-
esc
set tempo
stop
Help us to improve Ultimate-Guitar.com Take our survey!
×
Author
Difficulty
novice
Apoptygma Bezerk - 
Until The End Of The World (Acoustic Version)

I could not find the tabs for this song anywhere, so tried to put them
down myself. Please feel free to improve this version since i know it's
not completely perfect.  

INTRO(x4):

E-|----------------|-----------------|----------------|------------------|
B-|----------------|-----------------|----------------|------------------|
G-|--------------0-|--------------0--|--------------0-|---------------0--|
D-|----------4-----|----------4------|----------4-----|----------4-------|
A-|------2---------|------2----------|------2---------|------2-----------|
E-|--0-------------|--0--------------|--0-------------|--0---------------|


VERSE(x2):
1:                    All      the      weights  that     keep    me  down
2:                    Only        time         will     heal you      say 

E-|----------------|-----------------|----------------|------------------|
B-|----------------|-----------------|----------------|------------------|
G-|--------------0-|--------------0--|--------------0-|---------------0--|
D-|----------4-----|----------4------|----------4-----|----------4-------|
A-|------2---------|------2----------|------2---------|------2-----------|
E-|--0-------------|--0--------------|--0-------------|--0---------------|

1:   `                            seem  heavier     than     before
2:                                Your  word's  my  therapy 

E-|----------------|-----------------|----------------|------------------|
B-|----------------|-----------------|----------------|------------------|
G-|--------------0-|--------------0--|--------------0-|---------------0--|
D-|----------4-----|----------4------|----------4-----|----------4-------|
A-|------2---------|------2----------|------2---------|------2-----------|
E-|--0-------------|--0--------------|--0-------------|--0---------------|

1:                                Faith hit     me  in my face
2:                                But   half of me  is gone 
	 
E-|----------------|-----------------|----------------|------------------|
B-|----------------|-----------------|----------------|------------------|
G-|--------------0-|--------------0--|--------------0-|---------------0--|
D-|----------4-----|----------4------|----------4-----|----------4-------|
A-|------2---------|------2----------|------2---------|------2-----------|
E-|--3-------------|--3--------------|--3-------------|--3---------------|

1:                               Though you feel   nothing 
2:                        My dearest   treasure    torn   away 

E-|----------------|-----------------|----------------|------------------|
B-|----------------|-----------------|----------------|------------------|
G-|--------------0-|--------------0--|--------------0-|---------------0--|
D-|----------4-----|----------4------|----------4-----|----------4-------|
A-|------2---------|------2----------|------2---------|------2-----------|
E-|--3-------------|--3--------------|--3-------------|--3---------------|

CHORUS:
                 I´ll stick with you            until        the 
				 
E-|--------------2-|---------------2-|--------------2-|--------------2---|
B-|----------3-----|----------3------|----------3-----|----------3-------|
G-|------2---------|------2----------|------2---------|------2-----------|
D-|--0-------------|--0--------------|--0-------------|--0---------------|
A-|----------------|-----------------|----------------|------------------|
E-|----------------|-----------------|----------------|------------------|

     end              of      the       world
	 
E-|--------------0-|---------------0-|--------------0-|------------------|
B-|----------0-----|----------0------|----------0-----|--------------0---|
G-|------0---------|------0----------|------0---------|----------0-------|
D-|--2-------------|--4--------------|--5-------------|------0-----------|
A-|----------------|-----------------|----------------|--2---------------|
E-|----------------|-----------------|----------------|------------------|

                 But  you     pretend       that you     feel nothing
				 
E-|----------------|-----------------|----------------|------------------|
B-|--------------1-|---------------1-|--------------1-|--1---3---1-------|
G-|----------2-----|----------2------|----------2-----|--2---2---0-------|
D-|------2---------|------2----------|------2---------|------0-----------|
A-|--0-------------|--0--------------|--0-------------|--2-------3-------|
E-|----------------|-----------------|----------------|------------------|



E-|----------------|-----------------|----------------|------------------|
B-|----------------|-----------------|----------------|--1---------------|
G-|----------------|------0----------|----------0-----|------0-----------|
D-|----------------|----------2------|------2-------3-|----------2-------|
A-|----------------|-----------------|--3-------------|--------------3---|
E-|----------------|-----------------|----------------|------------------|

                 I´ll wait    for  you          until        the 

E-|--------------2-|---------------2-|--------------2-|--------------2---|
B-|----------3-----|----------3------|----------3-----|----------3-------|
G-|------2---------|------2----------|------2---------|------2-----------|
D-|--0-------------|--0--------------|--0-------------|--0---------------|
A-|----------------|-----------------|----------------|------------------|
E-|----------------|-----------------|----------------|------------------|

     end              of      the       world

E-|--------------0-|---------------0-|--------------0-|--------------0---|
B-|----------0-----|----------0------|----------0-----|----------0-------|
G-|------0---------|------0----------|------0---------|------0-----------|
D-|--2-------------|--4--------------|--5-------------|--9---------------|
A-|----------------|-----------------|----------------|------------------|
E-|----------------|-----------------|----------------|------------------|

1, 3:            My  dearest       treasure     torn     away
2:               Half of           me           is       gone

E-|----------------|-----------------|----------------|------------------|
B-|--------------1-|---------------1-|--------------1-|--------------1---|
G-|----------2-----|----------2------|----------2-----|----------2-------|
D-|------2---------|------2----------|------2---------|------2-----------|
A-|--0-------------|--0--------------|--0-------------|--0---------------|
E-|----------------|-----------------|----------------|------------------|

1,3:
2:               My  dearest       treasure     torn     away

E-|----------------|-----------------|----------------|------------------|
B-|--------------1-|---------------1-|--------------1-|--------------1---|
G-|----------0-----|----------0------|----------0-----|----------0-------|
D-|------2---------|------2----------|------2---------|------2-----------|
A-|--3-------------|--3--------------|--3-------------|--3---------------|
E-|----------------|-----------------|----------------|------------------|

VERSE(x2)

CHORUS(x2)

Apoptygma Bezerk Website: http://www.apoptygmaberzerk.de/
By: zpirou@hotmail.com
Suggest correction
Give kudos to tab author, rate the tab!
1 2 3 4 5
comments
print report bad tab
guest
You may want to rate the tab now too:
select rating
Please do not post tabs as comments. Select "correction" instead!