Oops, an error
Loading. Please wait.

Ik Weerleg Mn Ziel Tab

by Appa
87 views 1 this week
no commentswrite comment
1 2 3 4 5
3 more votes to show rating
add to favorites
launch autoscroll
font size
0
reset
how to read this tab
guitar tuner
Autoscroll
slow
fast
+/-
esc
set tempo
stop
Help us to improve Ultimate-Guitar.com Take our survey!
×
Author
e ----5-5--8-5------5-5--8-5------5-5--8-5-|
b ----5-6-----------5-6-----------5-6------|
g ----5-5-----------5-5-----------5-5------|
d 7-7-----------7-7-----------7-7----------|
a 7-7-----------7-7-----------7-7----------|
E 5-5-----------5-5-----------5-5----------|

e ----5-5--8-5--8s-10-8-7-8-7-5-----------|
b ----5-6---------------------------------|
g ----5-5---------------------------------|
d 7-7-------------------------------------|
a 7-7-------------------------------------|
E 5-5-------------------------------------|

www.appaman.nl
Suggest correction
Give kudos to tab author, rate the tab!
1 2 3 4 5
comments
print report bad tab
guest
You may want to rate the tab now too:
select rating
Wanna post a correction for this tab? Suggest correction