Oops, an error
Loading. Please wait.

Marigold And Patchwork guitar pro

version 1
version 1

Whole song

Interactive

2,233 views 1 this week
2 commentsread comments
1 2 3 4 5
x 3
add to favorites
guitar tuner
Autoscroll
slow
fast
+/-
esc
set tempo
stop
File Format
Filesize

.gp4
40 Kb
"Marigold And Patchwork"
demo version
Play now

or get full version for Free

×
Get full version now!
Learn and play this song
in Tab Pro
Try for free

or get $10 off Welcome Bonus

Get welcome bonus
Get access to Tab Pro version of “Marigold And Patchwork”!
Tab Pro is a premium guitar tab service, available on PC, Mac, iOS and Android
TRY FOR FREE
Your download will start in 7 seconds
×
Like this song? We have more! Follow us on Facebook for daily tips, lessons and other guitar-related content.
To download “Marigold And Patchwork” Guitar Pro tab click button below
Please note that you must have Guitar Pro software installed on your
computer in order to view this file.
Suggest correction
Give kudos to tab author, rate the tab!
1 2 3 4 5
comments
report bad tab
2 comments total.
0 reply
bptalk2 10 Mar 11, 2006 07:13 AM

It's totally wrong, the general sound is there but this is making it way harder than it really is. Try starting with a D barre do some stuff with the 5th string, then play the D chord muting the higher strings, then an A then G, there's the intro

0 reply
allstar21369 652 Jul 22, 2010 07:09 AM

This is how I play the intro... in standard.

e|2--2-2-2----0--0-0-0----2--2-2-2--3--3-3-3p2-----|
B|3--3-3-3----3--3-3-3----3--3-3-3--3--3-3-3---3---|
G|2--2-2-2----2--2-2-2----2--2-2-2--2--2-2-2---2---|
D|0--0-0-0----x--x-x-x----0--0-0-0--0--0-0-0---0---|
A|------------4--4-4-4-----------------------------|
E|-------------------------------------------------|

e|-------------------------------------------------|
B|3--3-3-3----2--2-2-2-----------------------------|
G|2--2-2-2----2--2-2-2----4--4-4-4-4-4-4-4---------|
D|0--0-0-0----0--0-0-0----0--0-0-0-0-0-0-0---------|
A|2--2-2-2----0--0-0-0----x--x-x-x-x-x-x-x---------|
E|------------------------3--3-3-3-3-3-3-3---------|

guest