Oops, an error
Loading. Please wait.

Bad Side Of The Moon Tab

version 1
version 1

Whole song

20,320 views 21 this week
2 commentsread comments
1 2 3 4 5
excellent!
x 9
add to favorites
launch autoscroll
font size
0
reset
how to read this tab
guitar tuner
Tab Pro tools
  • play this tab
  • loop segment
  • change instrument
  • show fretboard
  • metronome
×
Best way to learn
"Bad Side Of The Moon"
Autoscroll
slow
fast
+/-
esc
set tempo
stop
Band name: April Wine
Song name: Bad Side of the Moon
Tabbed by: ScHrOeDer
 
Standard Tuning: EADGBE

Intro:

e|--------------------------------------------------|
B|--------------------------------------------------| 
G|----1--1---------3--3------1--1-------1--1--------|  
D|---0--0--0--x6--3--3--3---2--2---2---0--0--0------|\ 
A|-----2------------3---------3----------2----------| \
E|--3----3-------1-----1---3-----3----3-----3-------|  \
e|--------------------------------------------------|   \
    C            Bb        F          C                 repeat both measures
                                                        but play first C
e|--------------------------------------------------|   pattern just once
B|--------------------------------------------------|  /
G|----1--1-------3--3------1--1-----1---------------| /    
D|---0--0--0----3--3--3---2--2---2--0---------------|/   
A|-----2----------3---------3-------2---------------|  
E|--3----3-----1-----1---3-----3----3---------------|
    C            Bb        F          C

Then:

e|--8--8----6-6---8--8----8--8----------------------|
B|--8--8----6-6---10-10---8--8----------------------|
G|--9--9----7-7---10-10---9--9----------------------|
D|--10-10---8-8---10-10---10-10---------------------| repeat
A|--10-10---8-8---8--8----10-10---------------------|
E|--8--8----6-6-----------8--8----------------------|
    C       Bb    F       C                          
This's my life, this's my life...  

Verses
 
e|--8--8--8--8----8--8----8--8----6-6---8--8----6-66---6---8---|
B|--8--8--8--8----10-10---8--8----6-6---10-10---8-88---6---8---|
G|--9--9--9--9----10-10---9--9----7-7---10-10---8-88---7---9---|
D|--10-10-10-10---10-10---10-10---8-8---10-10---8-88---8---10--|repeat
A|--10-10-10-10---8--8----10-10---8-8---8--8----6-66---8---10--|
E|--8--8--8--8------------8--8----6-6------------------6---8---|
    C             F       C       Bb    F       Eb     Bb  C
Seems as tho Ive lived my life...

Then:

e|--8-----8-----6----6-----8-----6--6--8------------|
B|--10----8-----8----6-----8-----8--6--8------------|
G|--10----9-----8----7-----9-----8--7--9------------|
D|--10----10----8----8-----10----8--8--10-----------|
A|--8-----10----6----8-----10----6--8--10-----------|
E|--------8----------6-----8--------6--8------------|
    F     C     Eb   Bb    C     Eb Bb C
I'm a light world away...

Chorus:

e|-8--8----6-6---8--8----8--8---------------------------|
B|-8--8----6-6---10-10---8--8---------------------------|
G|-9--9----7-7---10-10---9--9---------------------------|
D|-10-10---8-8---10-10---10-10--------------------------|
A|-10-10---8-8---8--8----10-10--------------------------|
E|-8--8----6-6-----------8--8---------------------------|
   C      Bb   F      C
This's my life, this's my life...

Then theres one more verse and the chorus plays over and 
over to the end
comments
print report bad tab
2 comments total.
0 reply
........... wrote on November 4 2005, 08:12 pm

In case u couldnt tell, I transcrbed the second line one string too low. Chords are still right tho.

0 reply
jimmy-moto wrote on October 3 2011, 08:15 pm

Great tab! The picking pattern is excellent and the chorus is correct.
However, the verse goes like this:


e|--8--8--8--8----6-6---8--8----8--8----6-66---5-5--8---|
B|--8--8--8--8----6-6---8--8----10-10---8-88---6-6--8---|
G|--9--9--9--9----7-7---9--9----10-10---8-88---7-7--9---|
D|--10-10-10-10---8-8---10-10---10-10---8-88---7-7--10--|
A|--10-10-10-10---8-8---10-10---8--8----6-66---5-5--10--|
E|--8--8--8--8----6-6---8--8----8--8----------------8---|
C Bb C F Eb Dm C


And the bridge goes like (titled "Then" in the tab):

e|--8-----8-----6----6----8-----6--6--8------------|
B|--10----8-----8----6----8-----8--6--8------------|
G|--10----9-----8----7----9-----8--7--9------------|
D|--10----10----8----8----10----8--8--10-----------|
A|--8-----10----6----8----10----6--8--10-----------|
E|--------8---------------8--------6--8------------|
F C Eb F C Eb Bb C

I want to post or [tab]
guest
You may want to rate the tab now too:
select rating
Please do not post tabs as comments. Select "correction" instead!