Oops, an error
Loading. Please wait.

Fast Train Tab

version 3
version 3

Whole song

219 views 1 this week
no commentswrite comment
1 2 3 4 5
please rate
add to favorites
launch autoscroll
font size
0
reset
how to read this tab
guitar tuner
Tab Pro tools
  • play this tab
  • loop segment
  • change instrument
  • show fretboard
  • metronome
×
Best way to learn
"Fast Train"
Autoscroll
slow
fast
+/-
esc
set tempo
stop
Contributor
Capo
1st fret
April Wine

Fast Train

Tabbed by The Pandaman

Capo 1


Chords:

A  A9  C9  D  Dm  F  G  E  Em
-  -    -  -   -  -  -  -  -
0  0    3  2   1  1  3  0  0
2  0    3  3   3  1  0  0  0
2  2    0  2   2  2  0  1  0
2  2    2  0   0  3  0  2  2
0  0    3  x   x  3  2  2  2
x  x    x  x   x  1  3  0  0



A  C9  D  C9

I read the colours this morning 
I read the colours today 
About a man who left from nowhere to be someone 
And every day he has to pay in every way 

Interlude:
A   C9   D   Dm   F   G   E

A  C9  D  C9

I met a man from New York City 
He spoke of things I can't define 
A good man driven from his homeland 
Trying to find some peace of mind 

e|---------------------------------------------------------------------------|
B|---------------------------------------------------------------------------|
G|---------------------------------------------------------------------------|
D|---------------------------------------------------------------------------|
A|-----0-3-0-----------------------------------------------------------------|
E|-0-3-------3-0-3~----------------------------------------------------------|


A  C9  D  C9
It's a fast train, it's a fast train 
It's a fast train, it's a fast train 

Interlude:

A9

e|---------------------------------------------------------------------------|
B|---------------------------------------------------------------------------|
G|---------------------------------------------------------------------------|
D|-----------------------0-2-0-----------------------------------------------|
A|---------------------------------------------------------------------------|
E|-0---0-0----0-0----0-3-----------------------------------------------------|


Transition to end chorus:

e|-----9------8-----7------5-------------------------------------------------|
B|---5------4-----3------2---------------------------------------------------|
G|-6------5-----4------3-----------------------------------------------------|
D|---------------------------------------------------------------------------|
A|---------------------------------------------------------------------------|
E|---------------------------------------------------------------------------|

A  G  D  A

It's a fast train, it's a fast train 
It's a fast train, it's a fast train 
It's a fast train, it's a fast train 
It's a fast train, it's a fast train 
It's a fast train
comments
We did not receive enough feedback on this tab! Please rate:
print report bad tab
1 2 3 4 5
I want to post or [tab]
guest
You may want to rate the tab now too:
select rating
Please do not post tabs as comments. Select "correction" instead!