Oops, an error
Loading. Please wait.

I Like To Rock Bass Tab

7,855 views 12 this week
no commentswrite comment
1 2 3 4 5
2 more votes to show rating
add to favorites
launch autoscroll
font size
0
reset
guitar tuner
Autoscroll
slow
fast
+/-
esc
set tempo
stop
Help us to improve Ultimate-Guitar.com Take our survey!
×
Author
Difficulty
novice
April wine -I like to rock

Intro:
G--------------------|
D--------------------|
A---7-10--5-5--------|
E-------------8--5-0-|
Last time
---------------|
---------------|
7-10-----------|
-------5-------|
Solo 1 and 2
--------------------------|
--------------------------|
------7--5--7--5----------|
-------------------3--5---|
Verse1
---------------------------|
---------------------------|x2
------7--5--7--10--10------|
---------------------------|

---------------------------------|
---------------------------------|
------7--5--7--10----3--5--7-----|
---------------------5-----------|

---------------------------|
---------------------------|
------7--5--7--10--10------|
---------------------------|

---------------------------|
---------------------------|
---5--------5--7-----------|
--------5------------------|

Pre-chorus: ‘Journey to the stars…’
--------------------------------------|
--------------------------------------|
------3---3-3-3-3----5-5-5-5----------|
--------------------------------------|

Chorus: part1
-------------------------------------------|
-------------------------------------------|
-7-7--5--7----5-5--------------------------| x3
---------------------3-3-3-5-5-5-----------|
                          *----------------|
                               (Triplets)
Chorus: part2
-----------------|
-----------------|
7-5---7----------|
-----7-----------|x2

 Verse2:
--------------|
--------------|
7-7-5-7-------| x2
----------3-5-|


---------------------------------|
---------------------------------|
------7--5--7--10----3--5--7-----|
---------------------5-----------|

---------------------------|
---------------------------|
------7--5--7--10--10------|
---------------------------|

---------------------------|
---------------------------|
---5--------5--7-----------|
--------5------------------|

Prechorus:
Chorus:

Down tempo part
----------------------|
----------------------|
----------------------|
--0-----------0-0-----| with symbols as many times as needed

 Solo3
-----------------------|
-----------------------|
---7-10--5-5-----------|
---------------8--5-0--|

-----------------------------|
-----7---10--5-5-------------|
-------------------8--5-0----|
-----------------------------|

------------------------|
------------------------|
---7--10--5-5-----------|
-----------------8-5-0--|


outro is the same as the intro
Suggest correction
Give kudos to tab author, rate the tab!
1 2 3 4 5
comments
print report bad tab
guest
You may want to rate the tab now too:
select rating
Wanna post a correction for this tab? Suggest correction