Oops, an error
Loading. Please wait.

Just Between You And Me Tab

version 1
version 1

Whole song

Interactive

40,865 views 72 this week
3 commentsread comments
1 2 3 4 5
x 14
add to favorites
launch autoscroll
font size
0
reset
how to read this tab
guitar tuner
Autoscroll
slow
fast
+/-
esc
set tempo
stop
Help us to improve Ultimate-Guitar.com Take our survey!
×
[Intro/Solo]
                                          triplet triplet =20
e|-----35353---3535|-7---------------|-----7-9-10-10-9-7-5---|-7---------------|
B|-----------------|-----------------|---------------------5-|----5--------3535|
G|-----------------|-----------------|-----------------------|-----------------|
D|-----------------|-----------------|-----------------------|-----------------|
A|-----------------|-----------------|-----------------------|-----------------|
E|-----------------|-----------------|-----------------------|-----------------|
   1 & 2 & 3 & 4 &   1 & 2 & 3 & 4 &   1 & 2 ^ ^  3  ^ ^ 4 &   1 & 2 & 3 & 4 &

(start of first verse)
e|-----------------|
B|-3---------------|
G|-----------------|
D|-----------------|
A|-----------------|
E|-----------------|
   1 & 2 & 3 & 4 &

[Verse]
G              Bm     C
Time and time again I see
                   G          Em           Am           D
A love that seemed strong was not meant to be,
G                   Bm     C
Broken hearts don't always end,
Eb         G       Em        Am     D
Left too unsure to try love again.

[Chorus]
G            D       C
Just between you and me
       G        Bm        C
Baby I know our love will be,
G            D       C
Just between you and me
         G        Bm        C
Always I know our love will be,
C                    G
Just between you and me.

[Verse]
Lovers often seem to say
Hearts can be blind to love gone astray,
Always its the same old song,
Someone's been hurt by a love that's gone wrong.

[Chorus]
G            D       C
Just between you and me
       G        Bm        C
Baby I know our love will be,
G            D       C
Just between you and me
         G        Bm        C
Always I know our love will be,
C
Just between you -
C                    G
Just between you and me.

[Solo]
                                          triplet triplet =20
e|-----35353---3535|-7---------------|-----7-9-10-10-9-7-5---|-7---------------|
B|-----------------|-----------------|---------------------5-|----5--------3535|
G|-----------------|-----------------|-----------------------|-----------------|
D|-----------------|-----------------|-----------------------|-----------------|
A|-----------------|-----------------|-----------------------|-----------------|
E|-----------------|-----------------|-----------------------|-----------------|
   1 & 2 & 3 & 4 &   1 & 2 & 3 & 4 &   1 & 2 ^ ^  3  ^ ^ 4 &   1 & 2 & 3 & 4 &

[Verse]
G                   Bm      C
Words are sometimes hard to find,
G                Bm      C
The silence can be so unkind,
G                  Bm      C
You always help me find my way,
                  G           Em           Am   D
The love that we share grows stronger each day.

[Chorus]
Just between you and me
Baby I know our love will be,
Just between you and me
Always I know our love will be,
Just between you and me.
Seulement entre toi et moi
Means that our love will always be,
Just between you and me
Baby I know our love will be,
Just between you -=20
Just between you and me.

[Ending]
e|-----------------|-----------------|-3---------------|
B|-----------------|-----------------|-3---------------|
G|-9-------7-------|-5-------7-------|-4---------------|
D|---9---9---7-----|---5-------7---7-|-5---------------|
A|-----7-------5---|-----3-------5---|-5---------------|
E|-----------------|-----------------|-3---------------|
   1 & 2 & 3 & 4 &   1 & 2 & 3 & 4 &   1 & 2 & 3 & 4 &

transcribed by chris gaasch
#-----------------------------------------------------------------------------#

2. Version

[Intro solo]
e|--------------------|-------|---7-8-10-8-7--------|--------------------|---|--|
B|-3-----8-10-8-----8-|-10/12-|--------------10-8---|-10b12r10-----------|---|--|
G|-4--/9----------9---|-------|-------------------9-|----------9---9-7-9-|-7-|--|
D|-5------------------|-------|---------------------|--------------------|---|--|
A|-5------------------|-------|---------------------|--------------------|---|--|
E|-3------------------|-------|---------------------|--------------------|---|--|
                                                                              
[Solo 2]
(short one after 1st chorus)
e|--------------------|------------|-------------------|-----|------------------|
B|---7-8-10-8-7-------|------------|-------------------|-----|------------------|
G|-7------------9-7---|-9----9-7-9-|-7---5p4-4---5p4---|-----|------------------|
D|------------------9-|------------|-----------------5-|-----|------------------|
A|--------------------|------------|-------------------|--3--|------------------|
E|--------------------|------------|-------------------|-----|------------------|
                                                                              
[Main solo]
(long one after 2nd chorus)
e|-------10-10--------10-10------10-|12-|-15b17--15-12-----------------|----|---|
B|-10/12--------10/12-------10/12---|---|--------------15-12h15p12-----|----|---|
G|----------------------------------|---|---------------------------14-|-12-|---|
D|----------------------------------|---|------------------------------|----|---|
A|----------------------------------|---|------------------------------|----|---|
E|----------------------------------|---|------------------------------|----|---|
                                                                              
e|-------------------------------------------|-12-|-----15-19-------19p15-------|
B|-12-13-15-13-12-------------------15-------|----|-/17-------17----------17----|
G|----------------14-12----12--14b16---16r14-|----|-----------------------------|
D|----------------------14-------------------|----|-----------------------------|
A|-------------------------------------------|----|-----------------------------|
E|-------------------------------------------|----|-----------------------------|
                                                                              
e|-19p15------19p15------19p15----|-19b20---20r19---19-17-15-------|----|-------|
B|-------17---------17---------17-|--------------------------15h17-|-15-|-------|
G|--------------------------------|--------------------------------|----|-------|
D|--------------------------------|--------------------------------|----|-------|
A|--------------------------------|--------------------------------|----|-------|
E|--------------------------------|--------------------------------|----|-------|
                                                                              
[Nice little outro]
e|-7-----7----5-----5-|-3--3/5---------|--3-----|-------------------------------|
B|---8----------7-----|-5------7-------|--0-----|-------------------------------|
G|-----7----------7---|-5--------7--5\-|--0-----|-------------------------------|
D|--------------------|----------------|--------|-------------------------------|
A|--------------------|----------------|--------|-------------------------------|
E|--------------------|----------------|--------|-------------------------------|
                                                                              
(Turnaround lick)  
(at the end of each verse over Am - D ... into chorus)
e|----------------2--|----------------------------------------------------------|
B|----------------3--|----------------------------------------------------------|
G|----------------2--|----------------------------------------------------------|
D|--------0h2--0--0--|----------------------------------------------------------|
A|--0-2-3------------|----------------------------------------------------------|
E|-------------------|----------------------------------------------------------|


************************************

| r  Release
| b  Bend
| /  Slide up
| p  Pull-off
| h  Hammer-on
| \  Slide down

************************************
Suggest correction
comments
print report bad tab
3 comments total.
0 reply
iceman-2112 10 Oct 25, 2005 02:35 PM

first tab is terrible but the second one is perfect. thanks.

0 reply
RainLord 50 Apr 27, 2007 05:12 PM

the first tab has the chords though... they should be combined. the second is awesome.

0 reply
reptipigs416 10 Jan 18, 2009 11:24 PM

The main solo part is perfict!!!!!!! Nice job!!!!!!!!

guest
You may want to rate the tab now too:
select rating
Wanna post a correction for this tab? Suggest correction