Oops, an error
Loading. Please wait.

Oowatanite Tab

version 3
version 3

Whole song

6,462 views 6 this week
no commentswrite comment
1 2 3 4 5
x 4
add to favorites
launch autoscroll
font size
0
reset
how to read this tab
guitar tuner
Autoscroll
slow
fast
+/-
esc
set tempo
stop
Help us to improve Ultimate-Guitar.com Take our survey!
×
Difficulty
intermediate
Band: April Wine

Song: Oowatanite

Tuning: EADGbe

Intro/ main riff
e|-------------------------------------------------------------------------|
B|-------------------------------------------------------------------------|
G|-------------2---------4---------------2---------4-----------------------|
D|-2p1---2p1---2---2p1---4---2p1---2p1---2---2p1---4-----------------------|
A|-----2-----0-0-------2-2-------2-----0-0-------2-2-----------------------|
E|-------------------------------------------------------------------------|

Verse
e|-------------------------------------------------------------------------|
B|-------------------------------------------------------------------------|
G|-4--------2--------4--------2--------------------------------------------|
D|-4----4---2----2---4----4---2----2----5-5-5-5-5----5-5-5-/7-5-4----------|
A|-2----4---0----2---2----4---0----2----3-3-3-3-3-5--3-3-3-/5-3-2----------|
E|------2--------0--------2--------0--------------3------------------------|

Chorus            x3
e|-------------5-5---------------------------------------------------------|
B|-------------------------------------------------------------------------|
G|------2--4/6---------4---------------------------------------------------|
D|-2----2--------------4---------------------------------------------------|
A|-2----0--------------2---------------------------------------------------|
E|-0-----------------------------------------------------------------------|

Solo
e|-------------------------------------------------------------------------|
B|-------------------------------------------------------------------------|
G|-9b11-9b11-9b11-7-7h9p7--------------------------------------------------|
D|------------------------9-7h9p7-9-7-9-9b11--7h9--------------------------|
A|------------------------------------------------7-7h9--------------------|
E|------------------------------------------------------7------------------|

e|-------------------------------------------------------------------------|
B|-------------------------------------------------------------------------|
G|----7---9b11--9b11-9b11-9b11--11b13-11b13-11b13--11--9------9b11---------|
D|-/9---9-------------------------------------------------11---------------|
A|-------------------------------------------------------------------------|
E|-------------------------------------------------------------------------|

e|-------------------------------------------------------------------------|
B|-------------------------------------------------------------------------|
G|---------7-9----------7-9-9b11-------------------------------------------|
D|-9--9-11------9--9/11----------------------------------------------------|
A|-------------------------------------------------------------------------|
E|-------------------------------------------------------------------------|

Outro
e|-------------------------------------------------------------------------|
B|-------------------------------------------------------------------------|
G|-9b11-9b11-9b11-9b11-9b11-9b11-9~--9b11--7h9p7---------------------------|
D|-----------------------------------------------9-------------------------|
A|-------------------------------------------------------------------------|
E|-------------------------------------------------------------------------|

e|-------------------------------------------------------------------------|
B|-------------------------------------12b14-------------------------------|
G|--------------7--9b11~9p7-7-9p7------------------------------------------|
D|---7---7h8h9--------------------7----------------------------------------|
A|-9---9-------------------------------------------------------------------|
E|-------------------------------------------------------------------------|

e|-----------------------------------------------------------------18b20---|
B|-18b20-18b20-15-18-15h18p15----------15-18-18b20--18p15----15-18---------|
G|----------------------------17p15-17--------------------17---------------|
D|-------------------------------------------------------------------------|
A|-------------------------------------------------------------------------|
E|-------------------------------------------------------------------------|

tabbed by the Adrian

this is only my second tab but ive got a good feelin about this.

Also, could someone tab rock n rolls a vicious game" by April Wine and
"my guitar wants to kill your mama" by G3 or steve vai, eithers fine.
Suggest correction
comments
print report bad tab
guest
You may want to rate the tab now too:
select rating
Wanna post a correction for this tab? Suggest correction