Oops, an error
Loading. Please wait.

Sign Of The Gypsy Queen Bass Tab

version 1
version 1

Whole song

Interactive

3,302 views 3 this week
no commentswrite comment
1 2 3 4 5
please rate
add to favorites
launch autoscroll
font size
0
reset
guitar tuner
Autoscroll
slow
fast
+/-
esc
set tempo
stop
Help us to improve Ultimate-Guitar.com Take our survey!
×
Author
Sign of the Gypsy Queen – April Wine
(Chorus Effect)

Intro:
G:----------|---------|------7--|---------|-------------|
D:*---------|---------|---------|---------|------------*|
A:*-3-2-0---|---------|-5--55-5-|-0--0--2-|-3--3-2-0---*|
E:--------3-|-0--0--0-|---------|---------|----------3--|


Verse 1:
G:------|------|------|-------------|------|------|------|-------------|
D:------|------|------|-------------|------|------|------|-------0-1-2-|
A:----2-|-5--5-|-0--2-|-3-(3)-2-0---|----2-|-5--5-|-0--2-|-3-(3)-------|
E:-0----|------|------|-----------3-|-0----|------|------|-------------|

G:------|------|------|------------|------|------|------|----------|
D:------|------|------|------------|------|------|------|----------|
A:----2-|-5--5-|-0--2-|-3--3-2-0---|----2-|-5--5-|-0--2-|-3--3-3---|
E:-0----|------|------|----------3-|-0----|------|------|----------|


Verse 2:
G:------|------|------|-------------|------|------|------|-------------|
D:------|------|------|-------0-1-2-|------|------|------|-------------|
A:----2-|-5--5-|-0--2-|-3-(3)-------|----2-|-5--5-|-0--2-|-3-(3)-2-1---|
E:-0----|------|------|-------------|-0----|------|------|-----------3-|

G:------|------|------|------------|------|------|------|----------|
D:------|------|------|------0-1-2-|------|------|------|----------|
A:----2-|-5--5-|-0--2-|-3--3-------|----2-|-5--5-|-0--2-|-3--3-3---|
E:-0----|------|------|------------|-0----|------|------|----------|


Pre-Chorus/Bridge:
G:-------------------|
D:-2-0-2-0-2-0---0---|
A:-------------3-----|
E:-------------------|


Chorus:
G:----------|------7--|---------|-------------|
D:*---------|---------|---------|------------*|
A:*---------|-5--5--5-|-0--0--0-|-3--3-2-0---*|
E:--0--0--0-|---------|---------|----------3--|


After 1st Chorus
G:---------|
D:---------|
A:---------|
E:--0------|


After 2nd Chorus
G:---------|------7--|---------|-----------|
D:---------|---------|---------|-----------|
A:---------|-5--55-5-|-0--0--2-|-3--3-3----|
E:-0--0--0-|---------|---------|-----------|

Bridge:
G:-------------------|
D:-2-0-2-0-2-0-------|
A:-------------2-0---|
E:-------------------|


Guitar Solo:
G:------------------------------------------------------------------------|
D:------------------------------------------------------------------------|
A:--------7\-------7\---------------7\--------7\--------7\-----7\---------|
E:--0----7----0---7----7\--5-7-5\--7----0----7----0----7----7-----5-7-5\--|


Interlude:
G:-------|-------------|
D:-------|-------------|
A:-rest--|--3--3-2-0---|
E:-------|-----------3-|

G:-------|-------|-------|-------------|-------|-------|-------|-------|
D:-------|-------|-------|-------------|-------|-------|-------|-------|
A:-------|---5---|-------|--3--3-2-0---|-------|---5---|-------|---3---|
E:---0---|-------|---5---|-----------3-|---0---|-------|---5---|-------|


Pre-Chorus/Bridge:
G:-------------------|
D:-2-0-2-0-2-0---0---|
A:-------------3-----|
E:-------------------|


Chorus/Ending:
G:----------|------7--|---------|-------------|
D:*---------|---------|---------|------------*|
A:*---------|-5--5--5-|-0--0--0-|-3--3-2-0---*|
E:--0--0--0-|---------|---------|----------3--|
Suggest correction
Give kudos to tab author, rate the tab!
1 2 3 4 5
comments
print report bad tab
guest
You may want to rate the tab now too:
select rating
Please do not post tabs as comments. Select "correction" instead!