Oops, an error
Loading. Please wait.

Wont Go There Tab

174 views 1 this week
no commentswrite comment
1 2 3 4 5
please rate
add to favorites
launch autoscroll
font size
0
reset
how to read this tab
guitar tuner
Autoscroll
slow
fast
+/-
esc
set tempo
stop
Help us to improve Ultimate-Guitar.com Take our survey!
×
Author
Difficulty
intermediate
SONG: Won't Go There (Myles Goodwyn)
     ALBUM: Back To the Mansion
     YEAR: 2001

     This is Ryan with my first April Wine song. It is the opening track of their 
15th studio album.

     Intro (palm muted)
 Db             B               F#
-----------------------------------------------------------------|
-----------------------------------------------------------------|
-----------------------------------------------------------------|
-6---6---6-6-6---4---4---4-4-4-----------------------------------|
-4-4-4-4-4-4-4-0-2-2-2-2-2-2-2---4---4---4-4-4---4---4---4-4-4---|
-------------------------------0-2-2-2-2-2-2-2-0-2-2-2-2-2-2-2-0-|


For the record I did everything I could
 Db             B                F#
-----------------------------------------------------------------|
-----------------------------------------------------------------|
-----------------------------------------------------------------|
-6---6---6-6-6---4---4---4-4-4-----------------------------------|
-4-4-4-4-4-4-4-0-2-2-2-2-2-2-2---4---4---4-4-4---4---4---4-4-4---|
-------------------------------0-2-2-2-2-2-2-2-0-2-2-2-2-2-2-2-0-|


  And I knew a change would do me good..........It would
 Db              B              F#              G#
-----------------------------------------------------------------|
-----------------------------------------------------------------|
-----------------------------------------------------------------|
-6---6---6-6-6---4---4---4-4-4---------------------------6-6-6-6-|
-4-4-4-4-4-4-4-0-2-2-2-2-2-2-2---4---4---4-4-4---6-6-6-6-6-6-6-6-|
-------------------------------0-2-2-2-2-2-2-2-0-4-4-4-4-4-4-4-4-|
                                                 (release plam mute)


I better get away from the sound                               How 'bout...
                                I gotta run before it brings me down

 Db             B               F#               G#

-----------------------------------------------------------------|
-----------------------------------------------------------------|
-6-6-6-6-6-6-6---4-4-4-4-4-4-4-----------------------------------|
-6-6-6-6-6-6-6---4-4-4-4-4-4-4---4-4-4-4-4-4-4---6-6-6-6-6-6-6-6-|
-4-4-4-4-4-4-4-0-2-2-2-2-2-2-2---4-4-4-4-4-4-4---6-6-6-6-6-6-6-6-|
-------------------------------0-2-2-2-2-2-2-2-0-4-4-4-4-4-4-4-4-|

-------------------------------------------------------------------|
-------6---------------4---------------2---------------4-----------|
-----6---------------4---------------3---------------5-------------|
-6---------------4---------------4---------------6-----------------|
---4---------------2---------------4---------------6---------------|
-------------------------------------------------------------------|




you                Ya' how 'bout you              I don't go there no more
F#                              G#

-------------------------------------------------------------------|
-------------------------------------------------------------------|
-------------------------------------------------5-----------------|
---4-4-4-4-4-4-4---4-4-4-4-4-4-4---6-6-6-6-6-6-6-6-----------------|
---4-4-4-4-4-4-4---4-4-4-4-4-4-4---6-6-6-6-6-6-6-6-----------------|
-0-2-2-2-2-2-2-2-0-2-2-2-2-2-2-2-0 4-4-4-4-4-4-4-4-----------------|

---2-------------------------------4------4------4-------------------|
---2-------------------------------4--------4----4-------------------|
---3-------------------------------5----------5--5-------------------|
---4-------------------------------6---------------------------------|
---4-------------------------------6---------------------------------|
---2-------------------------------4---------------------------------|



Na na na naa, na naaaaa                             I don't go there no more
 Db             B               F#               G#

-----------------------------------------------------------------|
-----------------------------------------------------------------|
-6-6-6-6-6-6-6---4-4-4-4-4-4-4-----------------------------------|
-6-6-6-6-6-6-6---4-4-4-4-4-4-4---4-4-4-4-4-4-4---6-6-6-6-6-6-6-6-|
-4-4-4-4-4-4-4-0-2-2-2-2-2-2-2---4-4-4-4-4-4-4---6-6-6-6-6-6-6-6-|
-------------------------------0-2-2-2-2-2-2-2-0-4-4-4-4-4-4-4-4-|

-----------------------------------------------------------------|
-------6---------------4---------------2---------------4---------|
-----6-----6---------4-----4---------3-----3---------5-----5-----|
-6---------------4---------------4---------------6---------------|
---4--------4------2--------2------4--------4------6---------6---|
-----------------------------------------------------------------|



Na na na naa, na naaaaa                             I don't go there
Db             B               F#               G#

-----------------------------------------------------------------|
-----------------------------------------------------------------|
-6-6-6-6-6-6-6---4-4-4-4-4-4-4-----------------------------------|
-6-6-6-6-6-6-6---4-4-4-4-4-4-4---4-4-4-4-4-4-4---6-6-6-6-6-6-6-6-|
-4-4-4-4-4-4-4-0-2-2-2-2-2-2-2---4-4-4-4-4-4-4---6-6-6-6-6-6-6-6-|
-------------------------------0-2-2-2-2-2-2-2-0-4-4-4-4-4-4-4-4-|

-----------------------------------------------------------------|
-------6---------------4---------------2---------------4---------|
-----6-----6---------4-----4---------3-----3---------5-----5-----|
-6---------------4---------------4---------------6---------------|
---4--------4------2--------2------4--------4------6---------6---|
-----------------------------------------------------------------|


  (This is the riff played at the end of the chorus)

 Db                                B

-----------------------------------------------------------------|
-----------------------------------------------------------------|
---6-6-6-6-6-6-6---6-6-6-6-6-6-6---4-4-4-4-4-4-4---4-4-4-4-4-4-4-|
---6-6-6-6-6-6-6---6-6-6-6-6-6-6---4-4-4-4-4-4-4---4-4-4-4-4-4-4-|
-0-4-4-4-4-4-4-4-0-4-4-4-4-4-4-4-0-2-2-2-2-2-2-2-0-2-2-2-2-2-2-2-|
-----------------------------------------------------------------|

-----------------------------------------------------------------|
------------------------------4-6-6b7~-6-4---------------------4-|
---6~-----------------------6--------------4~-----------------6--|
-----------------------------------------------------------------|
-----------------------------------------------------------------|
-----------------------------------------------------------------|



   F#                            G#

-----------------------------------------------------------------|
-----------------------------------------------------------------|
-----------------------------------------------------------------|
--4-4-4-4-4-4-4---4-4-4-4-4-4-4---6-6-6-6-6-6-6---6-6-6-6-6-6-6--|
--4-4-4-4-4-4-4---4-4-4-4-4-4-4---6-6-6-6-6-6-6---6-6-6-6-6-6-6--|
0-2-2-2-2-2-2-2-0-2-2-2-2-2-2-2-0-4-4-4-4-4-4-4-0-4-4-4-4-4-4-4--|

--------------------------------------------------8--------------|
-6-6b7~-6-4-------------7-6-7-----9---------9p7p6----------------|
------------3----------------------------------------------------|
-----------------------------------------------------------------|
-----------------------------------------------------------------|
-----------------------------------------------------------------|



     This is basically the whole song, I spent a lot of time on this one and I think it 
turned out preety good. Enjoy.  From, RYAN D. KEMP
Suggest correction
Give kudos to tab author, rate the tab!
1 2 3 4 5
comments
print report bad tab
guest
You may want to rate the tab now too:
select rating
Please do not post tabs as comments. Select "correction" instead!