Oops, an error
Loading. Please wait.

You Wont Dance With Me Tab

1,987 views 9 this week
no commentswrite comment
1 2 3 4 5
3 more votes to show rating
add to favorites
launch autoscroll
font size
0
reset
how to read this tab
guitar tuner
Autoscroll
slow
fast
+/-
esc
set tempo
stop
Help us to improve Ultimate-Guitar.com Take our survey!
×
Author
Difficulty
novice
-------------------------------------------------------------------------------
                YOU WON'T DANCE WITH ME (Solo) - April Wine
-------------------------------------------------------------------------------
This is the first solo that I tabbed out 100% by ear but I think it's pretty accurate.

NOTE: The 17b's at the first part are not exactly right but there is enough there for 
to get the basic idea.

Tuning: Standard

e|-------------------------------17b-17b-17br-17b-17br-14-15p14----------|
B|--15~15-15-14--15-17p15-17b-----------------------------------15-------|
G|----------------------------14-----------------------------------14-12-|
D|-----------------------------------------------------------------------|
A|-----------------------------------------------------------------------|
E|-----------------------------------------------------------------------|

e|----------------------------------------14-15-15p14----14-15-17-18-19--|
B|-------------------------------------15-------------15-----------------|
G|------------------14-14~-14----14-14-----------------------------------|
D|--16-12-12~-14/16-----------16-----------------------------------------|
A|-----------------------------------------------------------------------|
E|-----------------------------------------------------------------------|

e|--19-17-19-21-19-21-|
B|--------------------|
G|--------------------|
D|--------------------|
A|--------------------|
E|--------------------|

| /  slide up
| p  pull-off
| ~  vibrato
===============================================================================
Suggest correction
Give kudos to tab author, rate the tab!
1 2 3 4 5
comments
print report bad tab
guest
You may want to rate the tab now too:
select rating
Wanna post a correction for this tab? Suggest correction