Oops, an error
Loading. Please wait.

Bring Me Down intro tab

version 1
version 1

Intro

Whole song

Interactive

416 views 3 this week
3 commentsread comments
1 2 3 4 5
x 3
add to favorites
×
Save as Personal and add changes to this tab that will be seen only by you. Learn more ›
×
You can save this tab as Personal to edit and correct it or add notes. All changes will be seen only by you. Learn more »
launch autoscroll
font size
0
reset
how to read this tab
guitar tuner
edit
Autoscroll
slow
fast
+/-
esc
set tempo
stop
Author
-------------------------------------------------------------------------------
                             BRING ME DOWN - APULANTA
-------------------------------------------------------------------------------
HERE IS THE INTRO TO THIS GREAT SONG, I HEARD IT FIRST ON TRANSWORLD SNOWBOARDING, 
AND SINCE THEN IVE BEEN HOOKED!

Tabbed by: ORIOLESAZB
Email:-------------

Tuning: STANDARD
HEAVEY DISTORTION

e|-9--9--9--9----|
B|-13-13-13-13---|\
G|---------------| \
D|---------------| / REPEAT THIS PART ALOT
A|---------------|/
E|---------------|
 
THEN THIS PART COMES IN 

e|----------------------------------------------|
B|-11-14----14-11-14----14-11-14----14-13-14-13-|
G|-------13----------13----------13-------------|
D|----------------------------------------------|
A|----------------------------------------------|
E|----------------------------------------------|

e|-----------------------------------------------------|
B|-11-14----14-11-14----14-11-14----14-11-11\9-11-11\9-|
G|-------13----------13----------13--------------------|
D|-----------------------------------------------------|
A|-----------------------------------------------------|
E|-----------------------------------------------------|

e|----------------------------------------------|
B|-11-14----14-11-14----14-11-14----14-13-14-13-|
G|-------13----------13----------13-------------|
D|----------------------------------------------|
A|----------------------------------------------|
E|----------------------------------------------|

e|-11-14---14-11-14----14-11-14----13^-|
B|-------13---------13----------13-----|
G|-------------------------------------| 
D|-------------------------------------|
A|-------------------------------------|
E|-------------------------------------|


| /  slide up
| \  slide down
| h  hammer-on
| p  pull-off
| ~  vibrato
| +  harmonic
| x  Mute note
===============================================================================

            
            
Suggest correction
Creating personal tab
Creating personal tab
You can edit any tab online and save it as your Personal.

You can edit, replace or remove any tab part or add personal notes – all changes will be seen only by you.

Personal tabs can be accessed anytime from any device, even offline.
Learn more »
Give kudos to tab author, rate the tab!
1 2 3 4 5
comments
print report bad tab
3 comments total.
0 reply
Scorger 10 Jan 09, 2005 07:00 PM

Dude u are the man....We're like the only guys who know of this band....Bring Me down is amazing... I also found it on Transworld Snowborading....Sweet tab dude.

0 reply
Scorger 10 Jan 10, 2005 07:00 PM

Correction: hey i was playing your tab, and i think this sounds more like the beginning.

e|----------------------------------------------|
B|-14----- 14----14----14----14------14----13--h14---13|
G|-----13-------------13-------------13-------------|
D|----------------------------------------------|
A|----------------------------------------------|
E|----------------------------------------------|
13-14-13-|
G|------13-----------13-------------13-------------|
D|----------------------------------------------|
A|----------------------------------------------|
E|----------------------------------------------|

0 reply
Scorger 10 Jan 10, 2005 07:00 PM

Correction: hey i was playing your tab, and i think this sounds more like the beginning.

e|----------------------------------------------|
B|-14----- 14----14----14----14------14----13--h14---13|
G|-----13-------------13-------------13-------------|
D|----------------------------------------------|
A|----------------------------------------------|
E|----------------------------------------------|

guest
You may want to rate the tab now too:
select rating
Wanna post a correction for this tab? Suggest correction