Oops, an error
Loading. Please wait.

Koneeseen Kadonnut Tab

version 2
version 2

Whole song

Interactive

2,075 views 1 this week
no commentswrite comment
1 2 3 4 5
please rate
add to favorites
launch autoscroll
font size
0
reset
how to read this tab
guitar tuner
Tab Pro tools
  • play this tab
  • loop segment
  • change instrument
  • show fretboard
  • metronome
×
Best way to learn
"Koneeseen Kadonnut"
Autoscroll
slow
fast
+/-
esc
set tempo
stop
Contributor
Apulanta - Koneeseen kadonnut
[I've changed the tabs that I found from other ultimate guitar page to give more 
easier way of learning the song.]


( Song start's with ghostly pickups, u can decide how to do the effect by ur self, 
but it's basically the same as below! )


E|-------------------------------------|
H|-------------------------------------|
G|-------------------------------------|
D|-------------------12h14-------------|
A|-0-0-15-0-0-14-0-0-------0-15-0-0-14-|
E|-------------------------------------|

E|------------------------------------|
H|------------------------------------|
G|------------------------------------|
D|-----15----14----12-----------------|
A|-0-0---0-0---0-0---0-0-15-0-0-14-15-|
E|------------------------------------|
                              
E|-------------------------------------|
H|-------------------------------------|
G|-------------------------------------|
D|-------------------12h14-------------|
A|-0-0-15-0-0-14-0-0-------0-15-0-0-14-|
E|-------------------------------------|

E|------------------------------------|
H|------------------------------------|
G|------------------------------------|
D|-----15----14----17-----------------|
A|-0-0---0-0---0-0----0-0-17--0-0-15--|
E|------------------------------------|
Kaikki Ylläoleva / All Above [2x]
                                                   

Säkeistö / Verse
Am
Koneeseen kadonnutta
Dm
ei voi takaisin saada
Am
Kulutettu, käytetty
Dm
ruokkimaan ympyrää

Am
Luotettu ehkä liikaa
Dm
siihen että aika korjaa
Am
se minkä vuoksi nähtiin
Dm
niin kovin paljon vaivaa


 Dm  Am
E-5-|-5-|
H-6-|-5-| Soita alla oleva näillä sormituksilla! /
G-7-|-5-| Play below with these fingerings!
D-7-|-7-|
A-5-|---|
E-5-|---|

Dm             Am      Dm                  Am
Että hajalle saatiin, se mikä kauniiksi tarkoitettiin..

E------------|
H-8888-------|   Intro kertosäkeeseen /
G-7777-------|   Intro to chorus
D-------7777-|
A-------7777-|


Kertosäe / Chorus
  Am      F      G
e|-5-|  |-1-|  |-3-|
H|-5-|  |-1-|  |-3-|
G|-5-|  |-2-|  |-4-|
D|-7-|  |-3-|  |-5-|
A|-7-|  |-3-|  |-5-|
E|-5-|  |-1-|  |-3-|


Am
Kipu kuolee huutamalla
F
alastomana lattialla
G
Miten kauan sitä kestää
F        G(A.H)
ei, sitä ei voi tietää
Am
Kehen sattuu ja kuinka paljon
F
siitä kysymys enää tässä kai on
G      A        H      C     D
Kun on saavuttu siihen pisteeseen
F
ettei mikään ole varmaa

E|-------------------------------------|
H|-------------------------------------|
G|-------------------------------------|
D|-------------------12h14-------------|
A|-0-0-15-0-0-14-0-0-------0-15-0-0-14-|
E|-------------------------------------|

E|------------------------------------|
H|------------------------------------|
G|------------------------------------|
D|-----15----14----12-----------------|
A|-0-0---0-0---0-0---0-0-15-0-0-14-15-|
E|------------------------------------|
                              
E|-------------------------------------|
H|-------------------------------------|
G|-------------------------------------|
D|-------------------12h14-------------|
A|-0-0-15-0-0-14-0-0-------0-15-0-0-14-|
E|-------------------------------------|

E|------------------------------------|
H|------------------------------------|
G|------------------------------------|
D|-----15----14----17-----------------|
A|-0-0---0-0---0-0----0-0-17--0-0-15--|
E|------------------------------------|


Säkeistö / Verse

Am
Maailman pisimmät tunnit
Dm
niiden otteeseen jää kiinni
Am
Niitä kantaa loppuun asti
Dm
vaikka itse ei aina huomaa
Am
Millainen on se taivas
Dm
jota  ei löydetty koskaan
Am
Olen kuullut paljon siitä
Dm
osan jopa omasta suustani

 Dm  Am
E-5-|-5-|
H-6-|-5-| Soita alla oleva näillä sormituksilla! /
G-7-|-5-| Play below with these fingerings!
D-7-|-7-|
A-5-|---|        [Saman kuin aikaisemmin ylempänä / Same as above ]
E-5-|---|

Dm                Am     Dm               Am
Voi niin pitkälle jaksaa kun itsellensä vakuuttaa

E--------------|
H-7/8888-------|
G-6/7777-------|
D--------7777--|
A--------7777--|


Kertosäe / Chorus !



Lopussa A5 jää soimaan
In the end, A5 is left to ring

H5    H5
Joku meistä on onneton
H5    H5
palanut mutta tunnoton
H5    H5
katuva mutta uskoton
H5    H5
enemmän kuin rauhaton


H5
Periaate on ehdoton
C5
perustelu on aukoton
D5
yhtälö ehkä mahdoton
E5   F5      G5      A5
Miten niin muka armoton?

H5
Miten niin muka armoton?
C5
Miten niin muka armoton?
D5
Miten niin muka armoton?
E5
Miten niin muka armoton?

A5
Kipu kuolee huutamalla, alastomana lattialla
G5                      F5       G5
Miten kauan sitä kestää ei, sitä ei voi tietää

Kertosäe / Chorus

E|-------------------------------------|
H|-------------------------------------|
G|-------------------------------------|
D|-------------------12h14-------------|
A|-0-0-15-0-0-14-0-0-------0-15-0-0-14-|
E|-------------------------------------|

E|------------------------------------|
H|------------------------------------|
G|------------------------------------|
D|-----15----14----12-----------------|
A|-0-0---0-0---0-0---0-0-15-0-0-14-15-|
E|------------------------------------|
                              
E|-------------------------------------|
H|-------------------------------------|
G|-------------------------------------|
D|-------------------12h14-------------|
A|-0-0-15-0-0-14-0-0-------0-15-0-0-14-|
E|-------------------------------------|

E|------------------------------------|
H|------------------------------------|
G|------------------------------------|
D|-----15----14----17-----------------|
A|-0-0---0-0---0-0----0-0-17--0-0-15--|
E|------------------------------------|

E|-------------------------------------|
H|-------------------------------------|
G|-------------------------------------|
D|-17----------------17----------------| Ending
A|---0-0-17-0-0-~15----0-0-17-0-0-~15--|
E|-------------------------------------|

Kiitän!
Thank you!
comments
We did not receive enough feedback on this tab! Please rate:
print report bad tab
1 2 3 4 5
I want to post or [tab]
guest
You may want to rate the tab now too:
select rating
Please do not post tabs as comments. Select "correction" instead!