Oops, an error
Loading. Please wait.

My Oh My Bass Tab

version 1
version 1

Whole song

Interactive

by Aqua
510 views 1 this week
no commentswrite comment
1 2 3 4 5
please rate
add to favorites
launch autoscroll
font size
0
reset
guitar tuner
Tab Pro tools
  • play this tab
  • loop segment
  • change instrument
  • show fretboard
  • metronome
×
Best way to learn
"My Oh My"
Autoscroll
slow
fast
+/-
esc
set tempo
stop
Contributor
Difficulty
novice
-------------------------------------------------------------------------------
			     MY OH MY - Aqua
-------------------------------------------------------------------------------
Tabbed by: metallhead
Email: homesticky@gmail.com

Tuning: E A D G

Gtr I (E A D G) - 'Bass'

  Q=133
 4/4
  Gtr I
  W          W          W          W
|----------|----------|----------|------|
|----------|----------|----------|------|
|----------|----------|----------|------|
|----------|----------|----------|------|


  W          W          W          W
|----------|----------|----------|------|
|----------|----------|----------|------|
|----------|----------|----------|------|
|----------|----------|----------|------|


  W          W          W          W
|----------|----------|----------|------|
|----------|----------|----------|------|
|----------|----------|----------|------|
|----------|----------|----------|------|


  W          W          W          W
|----------|----------|----------|------|
|----------|----------|----------|------|
|----------|----------|----------|------|
|----------|----------|----------|------|


  W          S E S E S S S E S E S S   S E S E S S S S S S S S S S
|----------|-3---3---3---5---5---5---|-------------7---7---5-7-5----|
|----------|-------------------------|-7---7---7--------------------|
|----------|-------------------------|------------------------------|
|----------|-------------------------|------------------------------|


  S E S E S S S E S E S S   S E S E S S S S S S S S S S
|-3---3---3---5---5---5---|-------------7---7---5-7-5----|
|-------------------------|-7---7---7--------------------|
|-------------------------|------------------------------|
|-------------------------|------------------------------|


  S E S E S S S E S E S S   S E S E S S S S S S S S S S
|-3---3---3---5---5---5---|-------------7---7---5-7-5----|
|-------------------------|-7---7---7--------------------|
|-------------------------|------------------------------|
|-------------------------|------------------------------|


  S E S E S S S E S E S S   S E S E S S S S S S S S S S   W
|-3---3---3---5---5---5---|-----------------------------|------|
|-------------------------|-7---7---7---7---7---5-7-5---|------|
|-------------------------|-----------------------------|------|
|-------------------------|-----------------------------|------|


  S E S E S S S E S E S S   S E S E S S S E S E S S
|-7---7---7---7---7---7---|-------------------------|
|-------------------------|-8---8---8---8---8---8---|
|-------------------------|-------------------------|
|-------------------------|-------------------------|


   S E  S E  S S  S E  S E  S S
|-10---10---10---10---10---10----|
|--------------------------------|
|--------------------------------|
|--------------------------------|


   S E  S E  S S  S E  S E  S S    S E  S E  S S  S E  S E  S S
|-------------------------------|-------------------------------|
|-10---10---10---10---10---10---|-12---12---12---12---12---12---|
|-------------------------------|-------------------------------|
|-------------------------------|-------------------------------|


   S E  S E  S S  S E  S E  S S
|--------------------------------|
|--------------------------------|
|-13---13---13---13---13---13----|
|--------------------------------|


   S E  S E  S S  S E  S E  S S    S E  S E  S S  S E  S E  S S
|-------------------------------|-------------------------------|
|-15---15---15---15---15---15---|-------------------------------|
|-------------------------------|-15---15---15---15---15---15---|
|-------------------------------|-------------------------------|


   S E  S E  S S  S E  S E  S S
|--------------------------------|
|--------------------------------|
|-17---17---17---17---17---17----|
|--------------------------------|


   S E  S E  S S  S E  S E  S S    S E  S E  S S  S E  S E  S S
|-------------------------------|-------------------------------|
|-------------------------------|-------------------------------|
|-------------------------------|-20---20---20---20---20---20---|
|-18---18---18---18---18---18---|-------------------------------|


   S E  S E  S S  S E  S E  S S
|--------------------------------|
|--------------------------------|
|--------------------------------|
|-20---20---20---20---20---20----|


   S E  S E  S S  S E  S E  S S   S E S E S S S E S E S S
|-------------------------------|-3---3---3---3---3---3---|
|-------------------------------|-------------------------|
|-------------------------------|-------------------------|
|-22---22---22---22---22---22---|-------------------------|


   S E  S E  S S  S E  S E  S S
|-10---10---10---10---10---10----|
|--------------------------------|
|--------------------------------|
|--------------------------------|


   S E  S E  S S  S E  S E  S S   W          S E S E S S  S E  S E  S S
|-------------------------------|----------|-----------------------------|
|-10---10---10---10---10---10---|----------|-8---8---8---10---10---10----|
|-------------------------------|----------|-----------------------------|
|-------------------------------|----------|-----------------------------|


   S E  S E  S S  S S  S S  S  S  S S   S E S E S S  S E  S E  S S
|-------------------------------------|-----------------------------|
|----------------12---12---10-12-10---|-8---8---8---10---10---10----|
|-12---12---12------------------------|-----------------------------|
|-------------------------------------|-----------------------------|


   S E  S E  S S  S S  S S  S  S  S S   S E S E S S  S E  S E  S S
|-------------------------------------|-----------------------------|
|----------------12---12---10-12-10---|-8---8---8---10---10---10----|
|-12---12---12------------------------|-----------------------------|
|-------------------------------------|-----------------------------|


   S E  S E  S S  S S  S S  S  S  S S   S E S E S S  S E  S E  S S
|-------------------------------------|-----------------------------|
|----------------12---12---10-12-10---|-8---8---8---10---10---10----|
|-12---12---12------------------------|-----------------------------|
|-------------------------------------|-----------------------------|


   S E  S E  S S  S S  S S  S  S  S S    S E  S E  S S  S E  S E  S S
|-------------------------------------|--------------------------------|
|-------------------------------------|--------------------------------|
|-12---12---12---12---12---10-12-10---|-12---12---12---12---12---12----|
|-------------------------------------|--------------------------------|


   S E  S E  S S  S E  S E  S S    S E  S E  S S  S E  S E  S S
|-------------------------------|-------------------------------|
|-12---12---12---12---12---12---|-------------------------------|
|-------------------------------|-13---13---13---13---13---13---|
|-------------------------------|-------------------------------|


   S E  S E  S S  S E  S E  S S
|--------------------------------|
|-15---15---15---15---15---15----|
|--------------------------------|
|--------------------------------|


   S E  S E  S S  S E  S E  S S    S E  S E  S S  S E  S E  S S
|-------------------------------|-------------------------------|
|-------------------------------|-------------------------------|
|-15---15---15---15---15---15---|-17---17---17---17---17---17---|
|-------------------------------|-------------------------------|


   S E  S E  S S  S E  S E  S S
|--------------------------------|
|--------------------------------|
|--------------------------------|
|-18---18---18---18---18---18----|


   S E  S E  S S  S E  S E  S S   W           S E  S E  S S  S E  S E  S S
|-------------------------------|----------|--------------------------------|
|-------------------------------|----------|--------------------------------|
|-20---20---20---20---20---20---|----------|--------------------------------|
|-------------------------------|----------|-22---22---22---22---22---22----|


  S E S E S S S E S E S S    S E  S E  S S  S E  S E  S S
|-3---3---3---3---3---3---|-10---10---10---10---10---10---|
|-------------------------|-------------------------------|
|-------------------------|-------------------------------|
|-------------------------|-------------------------------|


   S E  S E  S S  S E  S E  S S
|--------------------------------|
|-10---10---10---10---10---10----|
|--------------------------------|
|--------------------------------|


   S E  S E  S S  S E  S E  S S    S E  S E  S S  S E  S E  S S
|-------------------------------|-------------------------------|
|-12---12---12---12---12---12---|-------------------------------|
|-------------------------------|-13---13---13---13---13---13---|
|-------------------------------|-------------------------------|


   S E  S E  S S  S E  S E  S S
|--------------------------------|
|-15---15---15---15---15---15----|
|--------------------------------|
|--------------------------------|


   S E  S E  S S  S E  S E  S S    S E  S E  S S  S E  S E  S S
|-------------------------------|-------------------------------|
|-------------------------------|-------------------------------|
|-15---15---15---15---15---15---|-17---17---17---17---17---17---|
|-------------------------------|-------------------------------|


   S E  S E  S S  S E  S E  S S
|--------------------------------|
|--------------------------------|
|--------------------------------|
|-18---18---18---18---18---18----|


   S E  S E  S S  S E  S E  S S    S E  S E  S S  S E  S E  S S
|-------------------------------|-------------------------------|
|-------------------------------|-------------------------------|
|-20---20---20---20---20---20---|-------------------------------|
|-------------------------------|-20---20---20---20---20---20---|


   S E  S E  S S  S E  S E  S S
|--------------------------------|
|--------------------------------|
|--------------------------------|
|-22---22---22---22---22---22----|


  S E S E S S S E S E S S    S E  S E  S S  S E  S E  S S
|-3---3---3---3---3---3---|-10---10---10---10---10---10---|
|-------------------------|-------------------------------|
|-------------------------|-------------------------------|
|-------------------------|-------------------------------|


   S E  S E  S S  S E  S E  S S
|--------------------------------|
|-10---10---10---10---10---10----|
|--------------------------------|
|--------------------------------|


  W          W          W          W
|----------|----------|----------|------|
|----------|----------|----------|------|
|----------|----------|----------|------|
|----------|----------|----------|------|


  W          W          W          W
|----------|----------|----------|------|
|----------|----------|----------|------|
|----------|----------|----------|------|
|----------|----------|----------|------|


  W          S E S E S S  S E  S E  S S    S E  S E  S S  S S  S S  S  S  S S
|----------|----------------------------|--------------------------------------|
|----------|-8---8---8---10---10---10---|----------------12---12---10-12-10----|
|----------|----------------------------|-12---12---12-------------------------|
|----------|----------------------------|--------------------------------------|


  S E S E S S  S E  S E  S S    S E  S E  S S  S S  S S  S  S  S S
|----------------------------|--------------------------------------|
|-8---8---8---10---10---10---|----------------12---12---10-12-10----|
|----------------------------|-12---12---12-------------------------|
|----------------------------|--------------------------------------|


  S E S E S S  S E  S E  S S    S E  S E  S S  S S  S S  S  S  S S
|----------------------------|--------------------------------------|
|-8---8---8---10---10---10---|----------------12---12---10-12-10----|
|----------------------------|-12---12---12-------------------------|
|----------------------------|--------------------------------------|


  S E S E S S  S E  S E  S S    S E  S E  S S  S S  S S  S  S  S S
|----------------------------|--------------------------------------|
|-8---8---8---10---10---10---|--------------------------------------|
|----------------------------|-12---12---12---12---12---10-12-10----|
|----------------------------|--------------------------------------|


  S E S E S S  S E  S E  S S    S E  S E  S S  S S  S S  S  S  S S
|----------------------------|--------------------------------------|
|-8---8---8---10---10---10---|----------------12---12---10-12-10----|
|----------------------------|-12---12---12-------------------------|
|----------------------------|--------------------------------------|


  S E S E S S  S E  S E  S S    S E  S E  S S  S S  S S  S  S  S S
|----------------------------|--------------------------------------|
|-8---8---8---10---10---10---|----------------12---12---10-12-10----|
|----------------------------|-12---12---12-------------------------|
|----------------------------|--------------------------------------|


  S E S E S S  S E  S E  S S    S E  S E  S S  S S  S S  S  S  S S
|----------------------------|--------------------------------------|
|-8---8---8---10---10---10---|----------------12---12---10-12-10----|
|----------------------------|-12---12---12-------------------------|
|----------------------------|--------------------------------------|


  S E S E S S  S E  S E  S S    S E  S E  S S  S S  S S  S  S  S S
|----------------------------|--------------------------------------|
|-8---8---8---10---10---10---|--------------------------------------|
|----------------------------|-12---12---12---12---12---10-12-10----|
|----------------------------|--------------------------------------|


   S E  S E  S S  S E  S E  S S    S E  S E  S S  S E  S E  S S
|-------------------------------|-------------------------------|
|-------------------------------|-12---12---12---12---12---12---|
|-12---12---12---12---12---12---|-------------------------------|
|-------------------------------|-------------------------------|


   S E  S E  S S  S E  S E  S S
|--------------------------------|
|--------------------------------|
|-13---13---13---13---13---13----|
|--------------------------------|


   S E  S E  S S  S E  S E  S S    S E  S E  S S  S E  S E  S S
|-------------------------------|-------------------------------|
|-15---15---15---15---15---15---|-------------------------------|
|-------------------------------|-15---15---15---15---15---15---|
|-------------------------------|-------------------------------|


   S E  S E  S S  S E  S E  S S
|--------------------------------|
|--------------------------------|
|-17---17---17---17---17---17----|
|--------------------------------|


   S E  S E  S S  S E  S E  S S    S E  S E  S S  S E  S E  S S
|-------------------------------|-------------------------------|
|-------------------------------|-------------------------------|
|-------------------------------|-20---20---20---20---20---20---|
|-18---18---18---18---18---18---|-------------------------------|


   S E  S E  S S  S E  S E  S S
|--------------------------------*|
|--------------------------------*|
|--------------------------------*|
|-20---20---20---20---20---20----*|


Duration Legend
---------------
W - whole; H - half; Q - quarter; E - 8th; S - 16th; T - 32nd; X - 64th; a - acciaccatura
+ - note tied to previous; . - note dotted; .. - note double dotted
Uncapitalized letters represent notes that are staccato (1/2 duration)
Irregular groupings are notated above the duration line
Duration letters will always appear directly above the note/fret number it represents the
duration for.  Duration letters with no fret number below them represent rests.  Multi-
bar rests are notated in the form Wxn, where n is the number of bars to rest for.  Low
melody durations appear below the staff

Tablature Legend
----------------
 h   - hammer-on
 p   - pull-off
 b   - bend
 pb  - pre-bend
 r   - bend release (if no number after the r, then release immediately)
 /\  - slide into or out of (from/to "nowhere")
 s   - legato slide
 S   - shift slide
  - natural harmonic
[n]  - artificial harmonic
n(n) - tapped harmonic
 ~   - vibrato
 tr  - trill
 T   - tap
 TP  - trem. picking
 PM  - palm muting
\n/  - tremolo bar dip; n = amount to dip
 \n  - tremolo bar down
 n/  - tremolo bar up
/n\  - tremolo bar inverted dip
 =   - hold bend; also acts as connecting device for hammers/pulls
 <>  - volume swell (louder/softer)
 x   - on rhythm slash represents muted slash
 o   - on rhythm slash represents single note slash

Misc Legend
-----------
 |  - bar
||  - double bar
||o - repeat start
o|| - repeat end
*|  - double bar (ending)
 :  - bar (freetime)
 $  - Segno
 &  - Coda
Tempo markers -  = BPM(8/16=s8/s16), where s8 = swing 8ths, s16 = swing 16ths
comments
We did not receive enough feedback on this tab! Please rate:
print report bad tab
1 2 3 4 5
I want to post or [tab]
guest
You may want to rate the tab now too:
select rating
Please do not post tabs as comments. Select "correction" instead!