Oops, an error
Loading. Please wait.

Velonica bass

version 2
version 2

Whole song

Interactive

5,304 views 1 this week
no commentswrite comment
1 2 3 4 5
3 more votes to show rating
add to favorites
×
Save as Personal and add changes to this tab that will be seen only by you. Learn more ›
×
You can save this tab as Personal to edit and correct it or add notes. All changes will be seen only by you. Learn more »
launch autoscroll
font size
0
reset
guitar tuner
edit
Autoscroll
slow
fast
+/-
esc
set tempo
stop
Band :Aqua Timez
Song :Velonica
Album:Utai Sarishi Hana
Bassist: Angel
Anime Version (Bleach)


Hey What's Up Guys ... well I don't Ussualy
Upload Tabs but i Guess alot of People likes, This Song
so lets do something Good with it .. and Help You Out
..... as You Can See This is Not The Full Song
but if you want the full Version
send me a mail or add me to msn.......... and i'll
send you the Full Tab .....

I have Done 2 Versions of the Song But i Prefer the sound
of this Version it  sounds almost 100% Correct
and if it's not 100%... it' is like a 99%
so here is the Tab hope You like it and
Enjoy it !!!!!!!!!!!!


D Tuning

Intro Part 1   x2
G|---------------------------------|
D|-9/--5/--7/----------------------|
A|-7/--3/--5/----------------------|
D|---------------------------------|

Intro Part 2   x2
G|----------------------------------|
D|----------------------------------|
A|-777---3333-----------------------|
D|-----------------0-0000000--------|

Verse 1:   x4
G|---------------------------------|
D|-9/--5/--7/----------------------|
A|-7/--3/--5/----------------------|
D|---------------------------------|

Verse 2:  x2
G|------------------------------------------------------------------------|
D|------------------------------Slide-------------------------------------|
A|-----7---3-10-9--------------9----10--7-----7---3-10-9---12-12--10-9-10-|
D|--2-------------12---9-10-9--------------2-------------12---------------|
Pre Chorus x1
G|---------------------------------------------|
D|---------------10-12-10-9--------------------|
A|-3333333--7-10------------12—141414----------|
D|---------------------------------------------|

G|-----------------------------------------|
D|-----------------------------------------|
A|-10101010------10---12-10-9-10-12-10-9---|
D|-----------12----------------------------|

G|---------------------------------------------------------------|
D|-----------------------------------------7-slide Up------------|
A|--------7-7-10-10-7-7--------7-7-10-10-7-----------------------|
D|-11-11-----------------10-10-----------------------------------|

G|--------------------------------------------------------------|
D|-0-0--0-0-----------------------------------------------------|
A|-----------2-2--6-6--7-7--9-9---------------------------------|
D|--------------------------------------------------------------|

 Chorus Part 1 x3
G|------------------------------------------------|
D|------------------------------------------------|
A|--33---555555--------------33--555555-----------|
D|---------------22—555555---------------22222222-|

 Chorus Part 2 x1
G|------------------------------------------------|
D|------------------------------------------------|
A|--33---555555----------------10-----------------|
D|----------------22 slide -12----12-10-----------|

Outro x1
G|---------------5------------7----------------------|
D|-------------5---5--------7---7--------------------|
A|-00--22---33-------3---55-------5------------------|
D|--------------------------------------2 let Ring---|


Intro Part 1       x2
Intro Part 2       x2
Verse 1            x4
Verse 2            x2
Pre Chours         x1
Chorus Part1       x3
Chours Part2       x1
Outro              x1

and if you Have any Cuestion on This Tab
or any Other Tab you Want...just let me Know!!!
and i will Upload it as soon as i can..
this is My E-mail Darkangel99_99@hotmail.com
so just send me a mail or ad to msn and we'll
talk about it see you......

            
            
Suggest correction
Creating personal tab
Creating personal tab
You can edit any tab online and save it as your Personal.

You can edit, replace or remove any tab part or add personal notes – all changes will be seen only by you.

Personal tabs can be accessed anytime from any device, even offline.
Learn more »
Give kudos to tab author, rate the tab!
1 2 3 4 5
comments
print report bad tab
guest
You may want to rate the tab now too:
select rating
Wanna post a correction for this tab? Suggest correction