Oops, an error
Loading. Please wait.

Good Times Gonna Come Tab

version 2
version 2

Whole song

3,902 views 1 this week
2 commentsread comments
1 2 3 4 5
x 9
add to favorites
launch autoscroll
font size
0
reset
how to read this tab
guitar tuner
Autoscroll
slow
fast
+/-
esc
set tempo
stop
Help us to improve Ultimate-Guitar.com Take our survey!
×
Author
Difficulty
novice
Tabbed from piano please rate because you know it is 100% correct.

e|-------------------------------------------------------------------------|
B|------5-----5-----5-----5-----5-----5-----5--5---------------------------|
G|----5-----5-----5-----7-----5-----5-----5----7---------------------------|
D|--7-----5-----3-----8-----7-----5-----3------8---------------------------|
A|-------------------------------------------------------------------------|
E|-------------------------------------------------------------------------|
Suggest correction
comments
print report bad tab
2 comments total.
+1 reply
blindinglight 41 Nov 12, 2007 11:18 PM

prettyyy good ;)

+2 reply
Neo46144614 10 Mar 18, 2008 01:57 PM

there is most easy ( but your is good )

e|-----------------------------
B|------5-----5-----5-----3--5-
G|----5-----5-----5-----3-----
D|--7-----5-----3--------------
A|-----------------------------
E|-----------------------------

Thank !
pretty good

guest
You may want to rate the tab now too:
select rating
Wanna post a correction for this tab? Suggest correction