Oops, an error
Loading. Please wait.

Strange And Beautiful Tab

4,389 views 1 this week
no commentswrite comment
1 2 3 4 5
3 more votes to show rating
add to favorites
launch autoscroll
font size
0
reset
how to read this tab
guitar tuner
Autoscroll
slow
fast
+/-
esc
set tempo
stop
Help us to improve Ultimate-Guitar.com Take our survey!
×
Difficulty
Capo
intermediate
3rd fret
Tabbed by: Erika

This is a finger picked version of this gorgeous song by Aqualung. For those who are 
with musical technicalities, this is in 3/4 time with the emphasis on the first beat. Enjoy!

Capo on 3
Standar tuning


Intro
    Em          G              Bm             D
|---0-------0-------3------3-------2------2-------2---0---------|
|---0---------0-----0--------0-----3--------3-----3-------3-----|
|---------------0--------------0-------4-------4-----2---2------|
|--------2--------------0------------4------------0-------------|
|------2--------------2------------2----------------------------|
|---0---------------3-------------------------------------------|x4

Verse
    Em          G              Bm             D
|---0-------0-------3------3-------2------2-------2---0---------|
|---0---------0-----0--------0-----3--------3-----3-------3-----|
|---------------0--------------0-------4-------4-----2---2------|
|--------2--------------0------------4------------0-------------|
|------2--------------2------------2----------------------------|
|---0---------------3-------------------------------------------|x4

Chorus
    A            G            Em
|---0-----0------3-----3------0---------0--3-----2-----0--------|
|---2-------2----0-------0----0-------0----0-----0-----0h2------|
|-------2-----2------------0--------0---------0-----------------|
|-----2--------------0------------2--------2--------2--2--------|
|---0--------------2------------2-------------------------------|
|----------------3------------0---------------------------------|
    A            G            Em
|---0-----0------3-----3------0---------0--3-----2-----0--------|
|---2-------2----0-------0----0-------0----0-----0-----0h2------|
|-------2-----2------------0--------0---------0-----------------|
|-----2--------------0------------2--------2--------2--2--------|
|---0--------------2------------2-------------------------------|
|----------------3------------0---------------------------------|
   A            G            D            C            G
|--0-----0------3-----3------2-----2------0-----0------3-----3--|
|--2-------2----0-------0----3-------3----1-------1----0--------|
|------2-----2------------0------2-----2------0-----0-----------|
|----2--------------0--------0-0------------2--------------0----|
|--0--------------2-----------------------3--------------2------|
|---------------0--------------------------------------3--------|
         A      A
|------0------0--------|
|-0----2------2--------|
|---0------2------2----|
|--------2------2------|
|------0------0--------|
|----------------------|

Bridge
    Em          G              Bm             D
|---0-------0-------3------3-------2------2-------2---0---------|
|---0---------0-----0--------0-----3--------3-----3-------3-----|
|---------------0--------------0-------4-------4-----2---2------|
|--------2--------------0------------4------------0-------------|
|------2--------------2------------2----------------------------|
|---0---------------3-------------------------------------------|x4


Repeat verse and chorus each once. To finish, repeat chorus several times, finishing 
the bridge.
Suggest correction
Give kudos to tab author, rate the tab!
1 2 3 4 5
comments
print report bad tab
guest
You may want to rate the tab now too:
select rating
Wanna post a correction for this tab? Suggest correction