Oops, an error
Loading. Please wait.

Lick Up The Honey Tab

version 2
version 2

Whole song

5,182 views 6 this week
2 commentsread comments
1 2 3 4 5
x 8
add to favorites
launch autoscroll
font size
0
reset
how to read this tab
guitar tuner
Autoscroll
slow
fast
+/-
esc
set tempo
stop
Help us to improve Ultimate-Guitar.com Take our survey!
×
Difficulty
intermediate
-----------------------------------------------------------------
Lick Up The Honey - AQUILA
-----------------------------------------------------------------
Tabbed by: Lee
Email: info@aquilalovesyou.com
Tuning:EADGBe

E|---------------------------------------------------------------|
B|---------------------------------------------------------------|
G|---------------------------------------------------------------|
D|---------------------------------------------------------------|
A|--------------0-2--2-0-2-3-2-0-4--4-5-4--4-0-2--2-0-2-3-2-0----|
E|--2--2-0-2--2--------------------------------------------------|


E|---------------------------------------------------------------|
B|---------------------------------------------------------------|
G|----------------4--4-4-4-4-4-4-6--6-6-6--6---4--4-4-4-4-4-4----|
D|--4--4-4-4--4---4--4-4-4-4-4-4-6--6-6-6--6---4--4-4-4-4-4-4----|
A|--4--4-4-4--4-0-2--2-0-2-3-2-0-4--4-5-4--4-0-2--2-0-2-3-2-0----|
E|--2--2-0-2--2--------------------------------------------------|

E|---------------------------------------------------------------|
B|---------------------------------------------------------------|
G|----------------4--4-4-4-4-4-4-6-6-6-6-6-6-6-6-6-4-4-4-4-4-4-4-|
D|--4--4-4-4--4---4--4-4-4-4-4-4-6-6-6-6-6-6-6-6-4-4-4-4-4-4-4-4-|
A|--4--4-4-4--4-0-2--2-0-2-3-2-0-4-4-4-4-4-4-4-4-4-2-2-2-2-2-2-2-|
E|--2--2-0-2--2--------------------------------------------------| 

E|---------------------------------------------------------------|
B|---------------------------------------------------------------|
G|-4-2-2-2-2-2-2-2-----------------------------------------------|
D|-4-2-2-2-2-2-2-2-6-6-6-6-5-5-5-5------------2---------------2--|
A|-2-0-0-0-0-0-0-0-6-6-6-6-5-5-5-5-4-4-4-2--2-0---4-4-4-2---2-0--|
E|-----------------4-4-4-4-3-3-3-3-2-2-2-0--0---0-2-2-2-0---0---0|

continue riff through verse
E|------12----------12----------12----------12-------------------|
B|--/14----14---/14----14---/14----14---/14----14b---------------|
G|---------------------------------------------------------------|
D|---------------------------------------------------------------|
A|---------------------------------------------------------------|
E|---------------------------------------------------------------|

E|---------------------------------------------------------------|
B|---------------------------------------------------------------|
G|---------------------------------------------------------------|
D|-2-2-2-4-4-4-4-4-4-5-5-5-4-4-4-4-4-2-2-2-4-4-4-4-4-------------|
A|-0-0-0-2-2-2-2-2-2-3-3-3-2-2-2-2-2-0-0-0-2-2-2-2-2-------------|
E|---------------------------------------------------------------|

E|---------------------------------------------------------------|
B|---------------------------------------------------------------|
G|-----5-----5---------7-----7-----------------------------------|
D|---5-----5-----5---7-----7-----7------------2---------------2--|
A|-3-----3-----3---5-----5-----5---4-4-4-2--2-0---4-4-4-2---2-0--|
E|---------------------------------2-2-2-0--0---0-2-2-2-0---0---0|


E|---------------------------------------------------------------|
B|---------------------------------------------------------------|
G|--------------------------------4--4-4-4--4-4-4--4-4-4---------|
D|------------2---------------2---4--4-4-4--4-4-4--4-4-4-2-2-2---|
A|-4-4-4-2--2-0---4-4-4-2---2-0---2--2h3p2--2h3p2--2h3p2-2-2-2---|
E|-2-2-2-0--0---0-2-2-2-0---0---0------------------------0-0-0---|

Back to main riff
1st Solo (with chord part below)
E|--7p0-0-9p0-0-14p0-0-12p0-0-7p0-0------------------------------|
B|---------------------------------------------------------------|
G|---------------------------------------------------------------|
D|----------------------------------------2----------------------|
A|--4----------------------------------2--0--4-------------------|
E|--2----------------------------------0-----2-------------------|
X2

E|---------------------------------------------------------------|
B|---------------------------------3-----------------------------|
G|--6---------4-4-4-6--------------2-----------------------------|
D|--6---------4-4-4-6--------4-4-4-0------2----2-2-2-4-----4-----|
A|--4---------2-2-2-4--------2-2-2--------2----2-2-2-4-----4-----|
E|----------------------------------------0----0-0-0-2-----2-----|

E|---------------------------------------------------------------|
B|-------------------3-------------------------------------------|
G|-------------------2-------------------------------------------|
D|---4--4--4--4--4---0------2-----2-2-2-4------------------------|
A|---4--4--4--4--4----------2-----2-2-2-4------------------------|
E|---2--2--2--2--2----------0-----0-0-0-2------------------------|
2nd Solo

E|-----------------------------------------------------12--------|
B|---9----9----9---------------------9h10p9----9-10-12b---12r-p10|
G|---11b--11b--11b--11-9--11-9-11-----------11-------------------|
D|---------------------------------------------------------------|
A|---------------------------------------------------------------|
E|---------------------------------------------------------------|


E|---------------------------------------------------------------|
B|-12-10-9-10-9h10p9--9h10p9--9h10p9--9h10p9--9h10p9--9h10p9-----|
G|------------------11------11------11------11------11------11---|
D|---------------------------------------------------------------|
A|---------------------------------------------------------------|
E|---------------------------------------------------------------|

E|---------------------------------------------------------------|
B|--9-9-10-9-10/14--14---14--14--12--10--9--9--------------------|
G|-------------------------------------------9-9/11--------------|
D|--------------------------------------------------9b-9br--7----|
A|------------------------------------------------------------9--|
E|---------------------------------------------------------------|

E|---------------------------------------------------------------|
B|-----10-------------10-------------10-------------10-----------|
G|--11----9--11----11----9--11----11----9--11----11----9-11-99999|
D|----------------------------------------------------------99999|
A|----------------------------------------------------------77777|
E|---------------------------------------------------------------|
Outro Solo
E|------------------------------------------12-------------------|
B|------10----10h12b--12br--10----10--12/14----14--14\12-12------|
G|---/11---11------------------11--------------------------------|
D|---------------------------------------------------------------|
A|---------------------------------------------------------------|
E|---------------------------------------------------------------|
                          End Chords
E|--------------------------/------------------------------------|
B|--10--12--14--12--10------/---------2-------2------2-----------|
G|--------------------------/---------4b------4b-----4b----------|
D|--------------------------/------------------------------------|
A|--------------------------/----4--------4-------4------2--4----|
E|--------------------------/----2--------2-------2------0--2----|

Tablature Notation

h - hammer on 
p - pull off 
b - bend string up
r - release bend
/ - slide up
\ - slide down
v - vibrato (or ~)
t - right hand tap
x - play 'note' with heavy muting
Suggest correction
comments
print report bad tab
2 comments total.
0 reply
ReReEducation 10 Jun 06, 2010 02:24 PM

Ive just started this song, so ive noticed something in the intro sounds wrong: when you start with the chords, you've got: D-4-4-4-4-4
A-4-4-4-4-4
E-2-2-0-2-2
* Ihink they should all be open
*",open
G-------------4-4-4-4-4-------------
D-4-4-4-4-4---4-4-4-4-4---------------
A-4-4-4-4-4-0-2-2-0-2-3---------
E-2-2-0-2-2----------------------
*E,D,G open
Basicly, go along with the notes like you did in the very beginning en dont stick with those notes on the 4th frets

0 reply
sebwbes 30 Sep 24, 2012 09:35 AM

u know that the person who tabed this was the one who wrote it :P

anyway thanks for tabbing this! now i can check what i done by ear wrong :)

guest
You may want to rate the tab now too:
select rating
Wanna post a correction for this tab? Suggest correction