Oops, an error
Loading. Please wait.

Cherubs Tab

1,486 views 6 this week
no commentswrite comment
1 2 3 4 5
please rate
add to favorites
launch autoscroll
font size
0
reset
how to read this tab
guitar tuner
Autoscroll
slow
fast
+/-
esc
set tempo
stop
Help us to improve Ultimate-Guitar.com Take our survey!
×
Author
I was listening to this amazing song and just realised that it's not as easy as I believed.

I know this is not entirely correct but its the best I can do in a short time.

I tabbed this for standard tunning but there's a possibility that it's on some weird tunning.

Dedicated to Lindsay (Ashtraygirl420420)


Main Riff

e|-----------------------------|
B|-----------------------------|
G|-----------------------------|
D|-----------------------------|
A|--------6------6----------8--|
E|-1/3--3---3--4----4--6--4----|

Second Riff (0:55) After the intro and works as chorus too with the piano

e|-----------------------|
B|-----------------------|
G|-----------------------|
D|-----------------------|
A|---5---5---5---6-------|
E|-4---4---4---4---------|

Third Riff (2:45) Bridge ?

e|-------------------------|
B|-------------------------|
G|-7---5-5-----------------|
D|-5---5-5-----------------|
A|-------------------------|
E|-------------------------|

Fourth Riff (4:01) Break ?

e|------------------------|
B|------------------------|
G|------------------------|
D|-----------0------------|
A|------------------------|
E|-3--6/8--1--------------|


Please, if someone transcribe the acurate version send me a message...
Sorry if my english sucks, I'm from Mexico
Cheers
Suggest correction
Give kudos to tab author, rate the tab!
1 2 3 4 5
comments
print report bad tab
guest
You may want to rate the tab now too:
select rating
Please do not post tabs as comments. Select "correction" instead!