Oops, an error
Loading. Please wait.

New Birds Tab

version 1
version 1

Whole song

Interactive

2,330 views 12 this week
no commentswrite comment
1 2 3 4 5
please rate
add to favorites
launch autoscroll
font size
0
reset
how to read this tab
guitar tuner
Autoscroll
slow
fast
+/-
esc
set tempo
stop
Help us to improve Ultimate-Guitar.com Take our survey!
×
New Birds
transcribed by Arnaud Lemoine ,
ASK ME FOR MORE ARAB STRAP TABS OR MALCOLM MIDDLETON TABS, OR POST YOUR OWN!!!!
BUT GET 'EM UP HERE
Intro
Bm G A G A Bm G A G A
e:------------------------|---------------------|--|
b:------------------------|---------------------|--|
g:-----2^3---2------------|---------------------|--|
D:------------------------|---------------------|--|
A:------------------------|---------------------|--|
E:------------------------|---------------------|--|
Verse 1
Bm G A G A Bm G A G A Bm A G A G A
e:------------------------|---------------------|--------------------------|
b:------------------------|-----------------4---|--------------------------|
g:------------------------|------------0-2------|--4----2/4--4/6-----------|
D:------------------------|---------------------|--------------------0^2---|
A:------------------------|---------------------|--------------------------|
E:------------------------|---------------------|--------------------------|
Bm A G Bm A D5
e:---------------------------------------|---------------------------------------|--|
b:---------------------------------------|---------------------------------------|--|
g:--7-----6---\--4-------7-----6-----7---|--7-----6---\--4-------7-----6-----7---|--|
D:--9-----7---\--5-------9-----7-----7---|--9-----7---\--5-------9-----7-----7---|--|
A:--9-----7---\--5-------9-----7-----5---|--9-----7---\--5-------9-----7-----5---|--|
E:--7-----5---\--3-------7-----5---------|--7-----5---\--3-------7-----5---------|--|
See Lyrics (http://www.discoboys.co.uk/lyrics2.htm#4)
Verse 2
Bm G A G A Bm G A G A
e:----------------------------|-----------------------------------|
b:----------------------------|----------------------------3^5----|
g:--4----2/4--4/6-------------|--2^4-----2^4^2--------0^2---------|
D:--------------------0^2-----|-----------------------------------|
A:----------------------------|-----------------------------------|
E:----------------------------|-----------------------------------|
Bm G A G A
e:----------------------------------------------------------------|
b:---------------h-p--h-p-h-p-h-p-h-p-h-p-h-p-h----5--------------|
g:--4-----2/4---2^4^(2^4^2^4^2^4^2^4^2^4^2^4^2^4)-----------------|
D:----------------------------------------------------------------|
A:----------------------------------------------------------------|
E:----------------------------------------------------------------|
Bm A G Bm A D5
e:-----------------------------------------------------------|
b:-----------------------------------------------------------|
g:--7--7^8^7--6--6-\--4-4----4/7-----7\6---7--7^8^7--6^7-7---|
D:--9--0------7--7-\--5-5----5/7--7--------9--0------7---7---|
A:--9---------7--7-\--5-5-5--5/5--5--------9---------7---5---|
E:--7---------5--5-\--3-3-3--3----5--------7---------5-------|
See Lyrics (http://www.discoboys.co.uk/lyrics2.htm#4)
Bridge (bass)
e:-------------------------------|-------------------------------------------------------|
b:-------------------------------|-------------------------------------------------------|
g:-------------------------------|-------------------------------------------------------|
D:-------2^4-4-------------------|-------2^4-2-------------------------------------------|
A:--4-4--0------2--4--4-4-4-4-4--|--4----0-----4--2--2-2-2-2-2^4-------------------------|
E:--2-----------0--0------0------|--2-2--------0--0--------------------------------------|
e:------------------------------------|--------------------------------------------------|
b:------------------------------------|--------------------------------------------------|
g:------------------------------------|--------------------------------------------------|
D:---------2^4-2----------------------|-------2^4-4--------------------------------------|
A:--4------0---0---4--2--(2-2-2)-2^4--|--4-4--0------2--4--4-4-4-4-4----4---2----0----2--|
E:--2--2-2---------0--0---------------|--2-----------0--0------0--------2---0----0----0--|
Outro
F#m E
e:-----------------------------------------------------------------------------|
b:-----------------h--------------------------h--------------------------------|
g:-*--------------9^11-11--------------------9^11-11---------------------------|
D:-*-11-11-11-11----------9--11-11-11-11-11----------9-11-11--11-11-11-11-11---|
A:----9--9--9--9-----------------9--9--9--9----------------9---9--9--9--9--9---|
E:-----------------------------------------------------------------------------|
D E
e:------------------------------------------------------------------|
b:--------------h---------------------------h-----------------------|
g:-------------9^11-9----------------------9^11-9-------------------| Repeat with *
D:--11--11-11---------11--9-9----11--11-11--------11-9-9-9-9-9-11---| distortion *
A:---9---9--9---------------------9---9--9--------------------------|
E:------------------------------------------------------------------|
F#m E D E
e:------------------------------------------------------------------------------------|
b:------------------------------------------------------------------------------------|
g:--*------------------------------------------------------------------------------*--|
D:--*--11-11-11-11-11-11-11-11--9-9-9-9-9-9-9-9--7-7-7-7-7-7-7-7--9-9-9-9-9-9-9-9--*--|
A:------9--9--9--9--9--9--9--9--7-7-7-7-7-7-7-7--5-5-5-5-5-5-5-5--7-7-7-7-7-7-7-7-----|
E:------------------------------------------------------------------------------------|
F#m E
e:----------------------------------------------------------------------------------------|
b:-----------------h---------------------------------------h--------)(--------------------|
g:--*-------------9^11-11---------------------------------9^11-11-11--11-9-------------*--|
D:--*--11-11-11-11----------9--11-11-11-11-11-11-11-11-11------------------11-9-11-11--*--|
A:------9--9--9--9-----------------9--9--9--9--9--9--9--9---------------------------------|
E:----------------------------------------------------------------------------------------|
F#m E D E
e:------------------------------------------------------------------------------------|
b:------------------------------------------------------------------------------------|
g:--*------------------------------------------------------------------------------*--|
D:--*--11-11-11-11-11-11-11-11--9-9-9-9-9-9-9-9--7-7-7-7-7-7-7-7--9-9-9-9-9-9-9-9--*--|
A:------9--9--9--9--9--9--9--9--7-7-7-7-7-7-7-7--5-5-5-5-5-5-5-5--7-7-7-7-7-7-7-7-----|
E:------------------------------------------------------------------------------------|
F#m E D E
e:------------------------------------------------------------------------------------|
b:------------------------------------------------------------------------------------|
g:------------------------------------------------------------------------------------|
D:-----11-11-11-11-11-11-11-11--9-9-9-9-9-9-9-9--7-7-7-7-7-7-7-7--9-9-9-9-9-9-9-9-----|
A:------9--9--9--9--9--9--9--9--7-7-7-7-7-7-7-7--5-5-5-5-5-5-5-5--7-7-7-7-7-7-7-7-----|
E:------------------------------------------------------------------------------------|
Suggest correction
What's this?
You can suggest a correction to this tab. Community and Mods will review your correction and vote to approve or reject it.
comments
We did not receive enough feedback on this tab! Please rate:
print report bad tab
1 2 3 4 5
guest
You may want to rate the tab now too:
select rating
Please do not post tabs as comments. Select "correction" instead!