Oops, an error
Loading. Please wait.

Packs Of Three Tab

version 1
version 1

Whole song

Interactive

1,446 views 1 this week
no commentswrite comment
1 2 3 4 5
excellent!
x 3
add to favorites
launch autoscroll
font size
0
reset
how to read this tab
guitar tuner
Tab Pro tools
  • play this tab
  • loop segment
  • change instrument
  • show fretboard
  • metronome
×
Best way to learn
"Packs Of Three"
Autoscroll
slow
fast
+/-
esc
set tempo
stop
Contributor
Packs Of Three
transcribed by Clark Taylor
Verse 1:
C7 C7 C C7 C7 C
e:|-----||--0-------3-------------------|----0-------3-------------------|------------------|
b:|-----||--1-------1--------------1----|----1-------1--------------1----|------------------|
g:|--4--||--2-------2--------------0----|----2-------2--------------0----|------------------|
D:|--4--||--3-------3--------------2----|----3-------3--------------2----|------------------|
A:|-----||-------------------------3----|---------------------------3----|------------------|
E:|-----||------------------------------|--------------------------------|------------------|
It was the biggest cock you'd ever seen. But you've no idea where that cock has been.
A5 G A5 G
e:--|------------3-0---------------------|---------------3-0----------------------|---------|
b:--|------------------------------------|----------------------------------------|---------|
g:--|--2-------------------0-------------|--2------------------------------0------|---------|
D:--|--2-------------------0-------------|--2------------------------------0------|---------|
A:--|----------------------2-------------|---------------------------------2------|---------|
E:--|----------------------3-------------|---------------------------------3------|---------|
You said you were careful - you never... I heard you did it four times...
Verse 2:
She was the best shag I'd ever had.
That doesn't mean I'm saying bed-wise you were bad.
I think you were working,we got a hotel.
I didn't have anything but I thought I might as well.
Middle:
Dm7 Bm G Dm7 Bm G
e:--|----1-----2----------------|----1-----2---------------------|--------------------------|
b:--|----1-----3----------------|----1-----3---------------------|--------------------------|
g:--|----2-----4-----------0----|----2-----4----------------0----|--------------------------|
D:--|----------4-----------0----|----------4----------------0----|--------------------------|
A:--|----------2-----------2----|----------2----------------2----|--------------------------|
E:--|----------------------3----|---------------------------3----|--------------------------|
I never told you the rest. I was drunk and I told you I was thinking about a test.
Dm7 Bm G Dm7 Bm G
e:--|----1--------2----------------|----1-----2---------------------|------------------------|
b:--|----1--------3----------------|----1-----3---------------------|------------------------|
g:--|----2--------4-----------0----|----2-----4----------------0----|------------------------|
D:--|-------------4-----------0----|----------4----------------0----|------------------------|
A:--|-------------2-----------2----|----------2----------------2----|------------------------|
E:--|-------------------------3----|---------------------------3----|------------------------|
You know I only said it for effect. Then you laughed and said I'd fuck anything in a skirt...
Solo: h p
e:-|-------h-------h-------------|-------h------------3^5^(3)-3~~--|------------------------|
b:-|------0^1-----1^3-1---3/5~---|------1^3-----3/5~~--------------|------------------------|
g:-|----2-----2---------2--------|----2-----2----------------------|------------------------|
D:-|--3---------3----------------|--3---------3--------------------|------------------------|
A:-|-----------------------------|---------------------------------|------------------------|
E:-|-----------------------------|---------------------------------|------------------------|
Verse3:
e:-|----------3-0---------------h---------|---------------------------------3--------|------|
b:-|------1-------1------------0^1--------|-------1------0----------1----------1-----|------|
g:-|----2---2-------2------0-------0---0--|-----2----2------2----------0----------0--|------|
D:-|--3------------------2---2-------2----|--3---------3------3----2-----------------|------|
A:-|-------------------3------------------|----------------------3--------3----------|------|
E:-|--------------------------------------|------------------------------------------|------|
And she's a famous harlot in this town. I know enough but still I couldn't turn her down.
A5 //various strumming A5 h p //various strumming E
e:-|-----3-1-0---------------------|-----3-1-0^1^0---------------3-3-------|--------|-------|
b:-|--------------------3--3-------|-------------------------3-3-3-3-------|--------|-------|
g:-|--2--------------0--0--3-------|--2--------------------0-0-0-0-0-------|--1-~~--|-------|
D:-|--2----------0-~-0--0--0-------|--2------------------0-0-0-0-0-0-------|--2-~~--|-------|
A:-|--0----------2-~-2--2--2-------|--0---------------2--2-2-2-2-2-2-------|--2-~~--|-------|
E:-|-------------3-~-3--3--3..etc--|------------------3--3-3-3-3-3-3..etc--|--------|-------|
comments
We did not receive enough feedback on this tab! Please rate:
print report bad tab
1 2 3 4 5
I want to post or [tab]
guest
You may want to rate the tab now too:
select rating
Please do not post tabs as comments. Select "correction" instead!