Oops, an error
Loading. Please wait.

The Shy Retirer Tab

1,707 views 12 this week
no commentswrite comment
1 2 3 4 5
please rate
add to favorites
launch autoscroll
font size
0
reset
how to read this tab
guitar tuner
Autoscroll
slow
fast
+/-
esc
set tempo
stop
Help us to improve Ultimate-Guitar.com Take our survey!
×
Author
shy retier(Acoustic)
band: arab strap
album: hug and pint/ shy returner
by: Jofo walker 2009

verse    e
e--------------------0/h/2----2-----------(7/5/3/2--)----------------|
b----------------0---------------(0)---------------------------------|
g-----------0---------------0---(0)----------------------------------|
d---0/h/2------------------------------------------------------------| then>>>>>
a--------------------------------------------------------------------|
E--------------------------------------------------------------------|

                                      c                        d
>>>----------------------------------------------------------------|
>>>>---------------------------0-----------------------------------|
>>>>>--------------------0-------0-----0------------0-----5----4---|
>>>>>---------------2-----2--------2-------------4-----4-----------|
>>>>>-----------3------------------------------5-- ------(5)-------|(5)
>>>>>>>>-----------------------------------------------------------|

chorus   C                           D
e-------------------------------------------------------------|
b----------------0--------------------------------------------|
g-----------0------0---------------------0-------5--4---------|
d---------2---2-------2---------------4-------4---------------|
a----3---------------------5--------5------5------------------|
E-------------------------------------------------------------|
  C                                 D                          EM
e------------------------------------------------------3-2-----------|
b----------------0---------------------------------3-5----------0----|
g-----------0------0---------------------0----------------------0----|
d---------2---2-------2--------------4------4-------------------2----|
a----3---------------------5--------5--------------------------------|
E--------------------------------------------------------------------|

now malcolm puts a capo on the second fret and just repeats the tab above

the "but when i feel like this i know.." part:

capo on 2nd
e--------------------------------------|
B--------------------------------------|
G------------0-------0-------0---------|
D-2//4---4-------4-------4-----4-------|
A------2---2---2---2---2---2-----------|
E--------------------------------------|

repeat several times, then verse then end with this one:

e----------------------------(0)------------|
B------------------------(3)----(0)---------|
G------------0-------0-----0----------------|
D-2//4---4-------4-------4------------------|
A------2---2---2---2---2--------------------|
E-------------------------------------------|

 violin
 e---2/--4/--/5--/7--/5---/4--/5------/5--/4--/2----------------------|
b------------------------------------------------5/--3/--/2--/3-------|
g---------------------------------------------------------------------|
 d--------------------------------------------------------------------|
a---------------------------------------------------------------------|
e---------------------------------------------------------------------|

 e----2/--/4--/5--/7-/5-/12-/10-/9-------------------------------------|
b----------------------------------------------------------------------|
 g---------------------------------------------------------------------|
 d---------------------------------------------------------------------|
a----------------------------------------------------------------------|
e----------------------------------------------------------------------|
Suggest correction
Give kudos to tab author, rate the tab!
1 2 3 4 5
comments
print report bad tab
guest
You may want to rate the tab now too:
select rating
Please do not post tabs as comments. Select "correction" instead!