Oops, an error
Loading. Please wait.

45 Tab

7 views 1 this week
no commentswrite comment
1 2 3 4 5
3 more votes to show rating
add to favorites
launch autoscroll
font size
0
reset
how to read this tab
guitar tuner
Autoscroll
slow
fast
+/-
esc
set tempo
stop
Help us to improve Ultimate-Guitar.com Take our survey!
×
Author
Difficulty
novice
[Solo]
(this is the lead starting at 1:50)

E|-------------------4------|
B|---7-9-7/5----5-----------|
G|-----------6----6----6----|
D|--------------------------|
A|--------------------------|
E|--------------------------|

E|---------7h9-------4------|
B|---7-9-7-------5----------|
G|-------------6---6---6----|
D|--------------------------|
A|--------------------------|
E|--------------------------|

E|-------------4---4--------|
B|---7-9-7/5---------5------|
G|-----------6---6----------|
D|--------------------------|
A|--------------------------|
E|--------------------------|

E|-------------4------------|
B|---7-9-7/5-----5-4--------|
G|-----------6-------6------|
D|--------------------------|
A|--------------------------|
E|--------------------------|

I played this with some reverb and chorus and it sounded pretty accurate.



************************************

| /  Slide up
| h  Hammer-on

************************************
Suggest correction
Give kudos to tab author, rate the tab!
1 2 3 4 5
comments
print report bad tab
guest
You may want to rate the tab now too:
select rating
Wanna post a correction for this tab? Suggest correction