Oops, an error
Loading. Please wait.

Crown Of Love Tab

version 1
version 1

Whole song

Interactive

29,015 views 12 this week
5 commentsread comments
1 2 3 4 5
x 7
add to favorites
launch autoscroll
font size
0
reset
how to read this tab
guitar tuner
backing track
0:00
0:00
×
Best way to learn
"Crown Of Love"
Autoscroll
slow
fast
+/-
esc
set tempo
stop
The Arcade Fire - Crown of Love Tabs
Tabbed by Perry The Almighty Rat
Any questions, please e-mail me at almightycringe@comcast.net


Intro:
--------------|
--------------|
--------------|
---6-6--5-----|
--------------|
--------------|
They say it

Verse:

------------------|
------------------|
----3--3--3--3----|
---5--5--5--5-----|
--6--6--6--6------|
------------------|
Fades if you

------------------|
------------------|
------------------|
--5--5--5--5------|
---6--6--6--6-----|
-4---4--4--4------|
Let it, love was

------------------|
------------------|
------------------|
---8--8--8--8-----|
--6--6--6—-6------|
-6--6--6--6-------|
Made to for-

------------------|
------------------|
------------------|
--5---5---5--5----|
---8---8---8--8---|
-7---7—--7---7--7-|
Get it.


I carved your name
Across my eyelids,
You pray for rain
I pray for blindness.


Chorus:
		Cm		G#
If you still want me, please forgive me,
		D#		A#
the crown of love has fallen from me.
		Cm		G#
If you still want me, please forgive me,
		D#		A#-----
because the spark is not within me.


Line Break:
I snuffed it
------------------|
------------------|
----3--3--3--3----|
---5--5--5--5-----|
--6--6--6--6------|
------------------|
Out before my

------------------|
------------------|
------------------|
--5--5--5--5------|
---6--6--6--6-----|
-4---4--4--4------|
mom walked in my bed

------------------|
------------------|
----3--3--3--3----|
---5--5--5--5-----|
--6--6--6--6------|
------------------|
room

Verse 2:
The only thing that you keep changin'
is your name, my love keeps growin'
still the same, just like a cancer,
and you won't give me a straight answer!

Chorus:
If you still want me, please forgive me,
the crown of love has fallen from me.
If you still want me please forgive me
because your hands are not upon me.

Line Break:
I shrugged them off before my mom walked in my bedroom.

Verse 3:
The pains of love, and they keep growin',
in my heart there's flowers growin'
on the grave of our old love,
since you gave me a straight answer.

Chorus:
		Cm		G#
If you still want me, please forgive me,
		D#		A#
the crown of love is not upon me
		Cm		G#
If you still want me, please forgive me,
		D#		B/D#
cause this crown is not within me.
		D#		B/D#
it's not within me, it's not within me.

Outro:
		D#
You gotta be the one,
you gotta be the way,
		B/D#
your name is the only word that I can say

		D#
You gotta be the one,
you gotta be the way,
		B/D#
your name is the only word,
the only word that I can say!

Disco Ending:
D#	B/D#
Suggest correction
comments
print report bad tab
5 comments total. Showing first comments.
0 reply
a_rush_of_blood 404 Dec 04, 2005 01:09 AM

absolutely pefect... but what is B/D#??

+1 reply
KaCeTe 124 Apr 10, 2006 04:45 AM

B/D# is B with bass in D#

e|---|
B|-4-|
G|-4-|
D|-4-|
A|-6-|
E|---|

For example.

0 reply
Dave Gilmour 40 Apr 10, 2009 07:06 AM

B/D# is incorrect. Should be replaced with G#m.

Also, the later choruses should have A# replaced with G and then G7
ex.
D# G G7
The Crown of Love has fallen from me.

guest
You may want to rate the tab now too:
select rating
Wanna post a correction for this tab? Suggest correction