Oops, an error
Loading. Please wait.

Haiti Chords

version 1
version 1

Whole song

Interactive

70,441 views 81 this week
2 commentsread comments
1 2 3 4 5
excellent!
x 29
add to favorites
launch autoscroll
font size
0
reset
transpose
0
reset
display chords
guitar tuner
Tab Pro tools
  • play this tab
  • loop segment
  • change instrument
  • show fretboard
  • metronome
×
Best way to learn
"Haiti"
Autoscroll
slow
fast
+/-
esc
set tempo
stop
Contributor
Artist: The Arcade Fire
Song: Haiti
Album: Funeral


Strum the Chords:
e|--------3------------0------------3----------0---|
B|--------3------------0------------3----------0---|
G|--------0------------0------------0----------0---|
D|----0---0-------0----2------------0----------2---|
A|-2------2----2-------2---0----2---2---0--2---2---|
E|--------3------------0------------3----------0---|



Em G         Em
Haiti, mon pays
        G                 Em         
Wounded mother I’ll never see
     G            Em
Ma famille set me free
         G                   Em          
Throw my ashes into the sea

G  Em  x4

       G           Em
Mes cousins jamais nes
            G             Em
Hantent les nuits de Duvalier
        G             Em
Rien n’arrete nos espirits
           G                        Em
Guns can’t kill what soldiers can’t see

       G             Em
In the forest we are hiding
         G                    Em
Unmarked graves where flowers grow
         G              Em
Hear the soldiers angry yelling
       G             Em
In the river we will go


G Em

         G                     Em       
Tous les morts-nes forment une armee
        G                Em
Soon we will reclaim the earth
        G                 Em
All the tears and all the bodies
      G                Em
Bring about our second birth

   G         Em
Haiti, never free
          G                 Em
n’aie pas peur de sonner l’alarme
      G            Em 
Tes enfants sont partis
         G                          Em
In those days their blood was still warm
comments
print report bad tab
2 comments total.
0 reply
Juliena wrote on June 20 2009, 05:24 pm

perfect tab. thanks

0 reply
Nero Galon wrote on August 26 2015, 12:44 pm

I think it goes like this and then sorta loops from the beginning, and alternates etc.

e|--------3------------0------------3----------0---------|
B|--------3------------0------------3----------0---------|
G|--------0------------0------------0----------0---------|
D|----0---0-------0----2------------0----------2---2--0--|
A|-2------2----2-------2---0----2---2---0--2---2---------|
E|--------3------------0------------3----------0---------|

I want to post or [tab]
guest
You may want to rate the tab now too:
select rating
Please do not post tabs as comments. Select "correction" instead!