Oops, an error
Loading. Please wait.

Intervention bass

version 1
version 1

Whole song

Interactive

6,934 views 3 this week
1 commentread comment
1 2 3 4 5
x 9
add to favorites
×
Save as Personal and add changes to this tab that will be seen only by you. Learn more ›
×
You can save this tab as Personal to edit and correct it or add notes. All changes will be seen only by you. Learn more »
launch autoscroll
font size
0
reset
guitar tuner
edit
Autoscroll
slow
fast
+/-
esc
set tempo
stop
Author
----------------------------------------------------------------------------
			     INTERVENTION - Arcade Fire
----------------------------------------------------------------------------

Tabbed By : Dieter
Tuning: EADG

Bass comes in at 1:36


1:36
G|--------|
D|--------|
A|---3-3--| x8
E|-3------|


1:43 "I can taste the fear..."
G|---------------------------------------------------------------|
D|---------------------------------------------------------------|
A|-3-----------------3-3-----3-3---3-----------------3-3-----3-3-|
E|---5-5---5-1-1---1-------3---------5-5---5-1-1---1-------3-----|

G|----------------------------------------------------------------|
D|----------------------------------------------------------------|
A|-3---------------------------------3-3-----3-3-----3-3-----3-3--|
E|---5-5---5-1-1---1-0-0---0-3-3---3-------3-------3-------3------|


2:00 "Who's gonna throw the very first stone..."
G|-------------------------------------------------------------------|
D|-------------------------------------------------------------------|
A|-3-----------------3333333---333333333-----------------3-3-----3-3-|
E|---5-5---5-1-1---1---------3-----------5-5---5-1-1---1-------3-----|

G|----------------------------------------------------------------|
D|----------------------------------------------------------------|
A|-3---------------------------------3-3-----3-3-----3-3-----3333-|
E|---5-5---5-1-1---1-0-0---0-3-3---3-------3-------3-------3------|


2:17 "Workin' for the church while my family dies..."
G|---------------------------------------------|
D|---------------------------------------------|
A|----------------3-3----3-3-----3-3-----3333--|  x2
E|-5555-0000-1111------3-------3-------3-------|

G|------------------------------------------------------------------------|
D|------------------------------------------------------------------------|
A|----------------3-3----3-3----3-3----10-10----10-10----10-10---10101010-| 
E|-5555-0000-1111------3------3-----10-------10-------10-------10---------|


2:41 “Hear the soldier groan...”
G|-------------------------------------------------------------------------|
D|-------------------------------------------------------------------------|
A|-3333----------------3-3----3-3----3-3----3-3----3-3----3-3----3-3---32--|
E|------1111-0000-3333------3------3------3------3------3------3------3--53|


2:53 “I can taste your fear...”
G|---------------------------------------------------------------|
D|------------------5-5-----5-5---5-----------------5-5-----5-5--|
A|--7-7---7-3-3---3-------5---------7-7---7-3-3---3-------5------|
E|---------------------------------------------------------------|

G|---------------------------------------------------------------|
D|-5---------------------------------5-5-----5-5-----5-5-----5-5-|
A|---7-7---7-3-3---3-2-2---2-5-5---5-------5-------5-------5-----|
E|---------------------------------------------------------------|

3:08 “They can’t find you now...”
G|----------------------------------------------------------------|
D|-5-----------------5-5-----5-5---5-----------------5-5-----5-5--|
A|---7-7---7-3-3---3-------5---------7-7---7-3-3---3-------5------|
E|----------------------------------------------------------------|

G|----------------------------------------------------------------|
D|-5---------------------------------5-5-----5-5-----5-5-----5555-|
A|---7-7---7-3-3---3-2-2---2-5-5---5-------5-------5-------5------|
E|----------------------------------------------------------------|

3:24 “Been working for the church...”
G|---------------------------------------------|
D|----------------5-5-----5-5-----5-5-----5555-|
A|-7777-2222-3333-------5-------5-------5------|  x2
E|---------------------------------------------|

G|-------------------------------------------------------------------------|
D|----------------5-5-----5-5-----5-5-----1212----1212----1212----12121212-|
A|-7777-2222-3333-------5-------5------12------12------12------12----------|
E|-------------------------------------------------------------------------|

3:47 “Hear the soldier groan...”
G|------------------------------------------------|
D|-5--5----------------5-5-----5-5----5-5----5-5--|
A|------3—-3-2—-2-5--5-------5------5------5------| 
E|------------------------------------------------|

G|----------------------------------------------------------------|
D|---5-5---5-------------------------5-5-----5-5-----5-5-----5-5--|
A|-5---------3—3---3-2-2—--2-5-5---5-------5-------5-------5------| 
E|----------------------------------------------------------------|

G|--------------------------------------|
D|---5-5---5-------------------------5--|
A|-5---------3—3---3-2-2—--2-5-5---5----| 
E|--------------------------------------|


Enjoy!

            
            
Suggest correction
Creating personal tab
Creating personal tab
You can edit any tab online and save it as your Personal.

You can edit, replace or remove any tab part or add personal notes – all changes will be seen only by you.

Personal tabs can be accessed anytime from any device, even offline.
Learn more »
comments
print report bad tab
1 comment total.
0 reply
dante85 10 Mar 28, 2007 07:05 AM

this is a pretty great tab. love this song and its awesome to play. thanks for posting this.

guest
You may want to rate the tab now too:
select rating
Wanna post a correction for this tab? Suggest correction