Oops, an error
Loading. Please wait.

Modern Man chords

version 1
version 1

Whole song

66,961 views 78 this week
7 commentsread comments
1 2 3 4 5
x 18
add to favorites
×
Save as Personal and add changes to this tab that will be seen only by you. Learn more ›
×
You can save this tab as Personal to edit and correct it or add notes. All changes will be seen only by you. Learn more »
launch autoscroll
font size
0
reset
transpose
0
reset
simplify chords
display chords
guitar tuner
edit
Autoscroll
slow
fast
+/-
esc
set tempo
stop
Strumming
There is no strumming pattern for this song yet. and get +5 IQ
Artist: Arcade Fire
Song: Modern Man
Album: The Suburbs


Intro: A F#m E x2

A     F#m                E      A
 I'll wait my turn I'm a modern man
         F#m                      E    A
 And the people behind they don't understand
          F#m        E
 Makes me feel like 
A         F#m        E
 Makes me feel like

A      F#m               E      A
  So I wait in line I'm a modern man
         F#m                      E    A
 And the people behind they can't understand
          F#m        E
 Makes me feel like 
A               F#m         E
 Something don't feel right

A F#m E A
  F#m E A

       F#m                         E      A
Like a record that's skippin'I'm a modern man
        F#m                       E      A
And the clock keeps tickin' I'm a modern man
          F#m        E
 Makes me feel light
A         F#m        E
 Makes me feel right

Bridge:
 D
 In my dream I was almost there
           A
 Then they pulled me aside and said you're going nowhere
 D
 They say we are the chosen few
           E                              A
 But we're wasted, and that's we're still waitin'

 F#m                  E      A
 On a number from the modern man
 F#m                              E    A
 Maybe when you're older you will understand
               F#m        E
 Why you don't feel right
A                       F#m        E
 Why you can't sleep at night now

A F#m E A
A F#m E A
F# E A

Chorus:
A/C#  B5        A5             G#5        F#m
In a line for a number but you don't understand
E       D     A/C#
Like a  moder man
     B5        A5              G#5        F#m
In a line for a number but you don't understand
E       D     A/C#
Like a  moder man


A     F#m               E   A
 Oh I had a dream I was dreamin'
      F#m                       E   A
 And I feel like I'm losing the feelin'
          F#m        E
 Makes me feel like 
A                F#m         E
 Something don't feel right


A  F#m                   E      A
 I waste a number of the modern man
       F#m                     E      A
 Gonna break the mirror of the modern man
          F#m        E
 Makes me feel like 
A         F#m        E
 Makes me feel like


Bridge
Chorus

            
            
Suggest correction
Creating personal tab
Creating personal tab
You can edit any tab online and save it as your Personal.

You can edit, replace or remove any tab part or add personal notes – all changes will be seen only by you.

Personal tabs can be accessed anytime from any device, even offline.
Learn more »
comments
print report bad tab
7 comments total. Showing first comments.
+2 reply
Mlo89 10 Aug 02, 2010 04:18 PM

The F#m to E doesn't feel right at all for "Makes me feel like"

+2 reply
tanguymar 10 Dec 30, 2010 07:37 AM

How do you recommend to play the B5, A5 and Ab5 ?

+4 reply
dr92 171 Oct 07, 2011 09:16 PM

this is how i play the lead guitar parts:

something don't feel right...
E-----------------------------------------------
B-----------------------------------------------
G-----------------------------------------------
D-7~-6-7-9-9-7-7-6-6/7-7--6-7-9-9-7-7-6-6/7-----
A-------------------------------------------7---
E-----------------------------------------------

in my dream i was almost there...
E--------------------
B--------------------
G-------------------- x3
D-9-9-7-7-6-6-7-6/7--
A--------------------
E--------------------

why you cant sleep at night now...
E------------------------------------------------------------
B------------------------------------------------------------
G------------------------------------------9-------9-9-11----
D-7~-6-7-9-9-7-7-6-6/7-7--6-7-9-9/11-11-11---11-11--------11~
A------------------------------------------------------------
E------------------------------------------------------------

E---------------------------------
B---------------------------------
G---------------9-9-11----9-------
D-9-9/7-7~-9/11--------11---11--9-
A---------------------------------
E---------------------------------

guest
You may want to rate the tab now too:
select rating
Wanna post a correction for this tab? Suggest correction