Oops, an error
Loading. Please wait.

Neighborhood 1 Tunnels Tab

version 1
version 1

Whole song

Interactive

52,923 views 63 this week
no commentswrite comment
1 2 3 4 5
x 14
add to favorites
×
Save as Personal and add changes to this tab that will be seen only by you. Learn more ›
×
You can save this tab as Personal to edit and correct it or add notes. All changes will be seen only by you. Learn more »
save as personal
new!
launch autoscroll
font size
0
reset
how to read this tab
guitar tuner
Autoscroll
slow
fast
+/-
esc
set tempo
stop
Author
Tuning: Standard

[Intro] (Over another guitar playing a F chord):
e|-----------------------------------------------------------|
B|-----------------------------------------------------------|
G|----------------------------------------------5------------|
D|-----------2--3--2------------2--3--2----5h7-----7--5---x2-|
A|-----0--3---------------0--3-------------------------------|
E|--1------------------1-------------------------------------|

[Verse]
e|---------------------------------------------|
B|---------------------------------------------|
G|---10---10---10---10---7---------------------|
D|---10---10---10---10---7----7----8-----------|
A|---8----7----8----7----5----7----8-----------|
E|----------------------------5----6-----------|

Listen to song for rythm but basically the F power chord is played for a beat and a half 
the E/F power chord is played for a half beat each time.  After that the D powerchord 
played one beat and the A and A# powerchords are played a half-beat each. (Wierd rythm
but you'll understand when you hear it.)

(Violin part played at different parts in the song)
e|-------------------------------------------------------------------|
B|-------------------------------------------------------------------|
G|----5------------5-----------5-------------------------------------|
D|-------7--5--7------7--5--7-----7--5--3--(Play like 2 or 3 times)--|
A|-------------------------------------------------------------------|
E|-------------------------------------------------------------------|

(When he starts singing "We let our hair grow long.." in the verse just play)
e|--------------------------------------------------------------|
B|--------------------------------------------------------------|
G|---10---10---10---10---7--------------10---10---7-------------|
D|---10---10---10---10---7----7----8----10---10---7----7----8---|
A|---8----7----8----7----5----7----8----8----7----5----7----8---|
E|----------------------------5----6-------------------5----6---|

(and hit the A and A# powerchords a little bit harder because this bit goes into the 
which is below.)

[Chorus] 
(Which is also the outro)
(First guitar can just play these powerchords in the chorus)
e|----------------|
B|----------------|
G|--10---7----5---|
D|--10---7----5---|
A|--8----5----3---|
E|----------------|

(If you want to play something more or you have a second guitar play this)
e|----------------------------------------------------------------|
B|----------------------------------------------------------------|
G|--10---10---10---10----7----7----7----7----5----7---9--10--12---|
D|--10---10---10---10----7----7----7----7----x----x---x--x---x----|
A|--8----7----8----7-----5----7----5----7----3----5---7--8---10---|
E|----------------------------------------------------------------|

(As usual, the F and D chords are played a beat and a half while the E/F and E/D chords 
played only a half beat.  The octaves are just played slowly at first and then go up fast.
On most of the parts of the song I thought the higher F powerchord sounded better but if 
dont think so, simply substitute it for the lower one:)
e|------------------------------------------|
B|------------------------------------------|
G|------------------------------------------|
D|--3----------------------------------3----|
A|--3—and then play the E/F like this--3----|
E|--1----------------------------------0----|


************************************

| x  Dead note
| h  Hammer-on

************************************
Suggest correction
comments
print report bad tab
guest
You may want to rate the tab now too:
select rating
Wanna post a correction for this tab? Suggest correction