Oops, an error
Loading. Please wait.

Old Flame Tab

3,003 views 3 this week
no commentswrite comment
1 2 3 4 5
please rate
add to favorites
launch autoscroll
font size
0
reset
how to read this tab
guitar tuner
Tab Pro tools
  • play this tab
  • loop segment
  • change instrument
  • show fretboard
  • metronome
×
Best way to learn
"Old Flame"
Autoscroll
slow
fast
+/-
esc
set tempo
stop
Contributor
Difficulty
intermediate
The Arcade Fire - Old Flame
From: Arcade Fire EP
Tabbed by Dave 
E-mail: ironic_clown@hotmail.com

It should all be accurate. E-mail with questions and feedback if you need to.

Intro/Verse:

e|-------------------------------------------------------------------|
B|-------------------------------------------------------------------|
G|--------------------------------------0-------0-------0-------0----|
D|--4-------4-------4-------4---------0---0---0---0---0---0---0---0--|
A|----5-4-5---5-4-5---5-4-5---5-4-5-2-------2-------2-------2--------|
E|-------------------------------------------------------------------|

e|-------------------------------------------------------------------|
B|-------------------------------------------------------------------|
G|------2-------2-------2-----2---2---7---7---7---7---7---7---7---7--|
D|----2---2---2---2---2---2-----2---0---0---0---0---0---0---0---0----|
A|--4-------4-------4-------4----------------------------------------|
E|-------------------------------------------------------------------|


Chorus:

e|-----------------------------------------------|
B|-----------------------------------------------|
G|-------------------7----11-----11----11----11--|
D|----7----7---7/9-7---12-----12----12----12-----|
A|--9----9---9-----------------------------------|
E|-----------------------------------------------|

e|------------------------------------------------|
B|------------------------------------------------|
G|-----11-----11-11/16-14-11------7----7---7------|
D|--10-----10----------------10-9----9---9---9-7--|
A|------------------------------------------------|
E|------------------------------------------------|

Repeat those two bars twice and then:

Chorus Ending 1

e|------------------------------------------------|
B|---------------------------------------------3--|
G|----2----0h2-----2----0h2---2----0h2-----4-2----|
D|--4---4------4-4---4------4---4------4-4--------|
A|------------------------------------------------|
E|------------------------------------------------|
                                              
Then go back to the verse.                    
                                              
Then the chorus again, except instead of Chorus Ending 1 play this:

Chorus Ending 2:

e|-------------------------------------------------------|
B|-------------------------------------------------------|
G|----2----0h2-----2----0h2-----2----0h2-----2----0h2----|
D|--4---4------4-4---4------4-4---4------4-4---4------4--|
A|-------------------------------------------------------|
E|-------------------------------------------------------|

e|------------------------------------------------------|
B|------------------------------------------------------|
G|----2----0h2-----2----0h2-----2----0h2-----2---2---4--|
D|--4---4------4-4---4------4-4---4------4-4---4---4----|
A|------------------------------------------------------|
E|------------------------------------------------------|

Then play this:

Bridge:

e|--------------------------------------------------------------------|
B|--------------------------------------------------------------------|
G|--------------------------------------------------------------------|
D|--------------------------------------------------------------------|
A|--4-4-4-4-4-4-4-4-4-4-4-4-4-4-4-4--5-5-5-5-5-5-5-5-5-5-5-5-5-5-5-5--|
E|--2-2-2-2-2-2-2-2-2-2-2-2-2-2-2-2--3-3-3-3-3-3-3-3-3-3-3-3-3-3-3-3--|

e|--------------------------------------------------------------------|
B|--------------------------------------------------------------------|
G|-----------------------------------2-2-2-2-2-2-2-2-2-2-2-2-2-2-2-2--|
D|--2-2-2-2-2-2-2-2-2-2-2-2-2-2-2-2--0-0-0-0-0-0-0-0-0-0-0-0-0-0-0-0--|
A|--0-0-0-0-0-0-0-0-0-0-0-0-0-0-0-0-----------------------------------|
E|--------------------------------------------------------------------|

Then go back to the chorus, then Chorus Ending 2, and on the second bar this comes in:

e|-------------------------------------------------------------------|
B|-------------------------------------------------------------------|
G|--2-2-2-2-2-2-2-2-2-2-2-2-2-2-2-2-2-2-2-2-2-2-2-2-2-2-2-2-2-2-2-2--|
D|--0-0-0-0-0-0-0-0-0-0-0-0-0-0-0-0-0-0-0-0-0-0-0-0-0-0-0-0-0-0-0-0--|
A|-------------------------------------------------------------------|
E|-------------------------------------------------------------------|
comments
We did not receive enough feedback on this tab! Please rate:
print report bad tab
1 2 3 4 5
I want to post or [tab]
guest
You may want to rate the tab now too:
select rating
Please do not post tabs as comments. Select "correction" instead!