Oops, an error
Loading. Please wait.

Suburban War intro tab

version 4
version 4

Whole song

Interactive

3,404 views 12 this week
1 commentread comment
1 2 3 4 5
x 4
add to favorites
×
Save as Personal and add changes to this tab that will be seen only by you. Learn more ›
×
You can save this tab as Personal to edit and correct it or add notes. All changes will be seen only by you. Learn more »
launch autoscroll
font size
0
reset
how to read this tab
guitar tuner
edit
Autoscroll
slow
fast
+/-
esc
set tempo
stop
Hi there,

As I don't own 12 string I can't get this exactly right but I believe it's one of
three things (or a combination):


(A) Capo on 3rd Fret

--2---2---2-------0-----------------------------|
----3-------3-------3---------------------------|
--------------------------0-2---0-2-------2-----|
------------------------0-----0-----0-------4-0-|
2-------2-----0-4-----0---------------0-4-------|
------------------------------------------------|

(B) Capo on 3rd Fret

--2---2---2-------0-------6-8--6-8--------8-5---|
----3-------3-------3-------------------------6-|
------------------------------------------------|
------------------------0-----0-----0-----------|
2-------2-----0-4-----0---------------0-4-------|
------------------------------------------------|

(C) Capo on 3rd Fret (probably right)

--2---2---2-------0---------5-----5------8--5----|
----3-------3-------3-----8-----8-------------6--|
-------------------------------------------------|
------------------------0-----0-----0------------|
2-------2-----0-4-----0---------------0-4--------|
-------------------------------------------------|

I think the effect is slight vibrato (on a pedal) and that's it.

Cheers,

Raj
Suggest correction
Creating personal tab
Creating personal tab
You can edit any tab online and save it as your Personal.

You can edit, replace or remove any tab part or add personal notes – all changes will be seen only by you.

Personal tabs can be accessed anytime from any device, even offline.
Learn more »
comments
print report bad tab
1 comment total.
+1 reply
slick666 10 Jan 22, 2014 03:39 AM

I find the the bottom riff is closest with a few corrections it sounds good IMO

--2---2---2-------0---------5-----5------5-------|
----3-------3-------3-----8-----8-----------7----|
-----------------------------------------------7-|
------------------------0-----0-----0------------|
2-------2-----0-4-----0---------------0-4--------|
-------------------------------------------------|

guest
Wanna post a correction for this tab? Suggest correction