Oops, an error
Loading. Please wait.

Suburban War tab

version 5
version 5

Whole song

Interactive

386 views 6 this week
no commentswrite comment
1 2 3 4 5
3 more votes to show rating
add to favorites
×
Save as Personal and add changes to this tab that will be seen only by you. Learn more ›
×
You can save this tab as Personal to edit and correct it or add notes. All changes will be seen only by you. Learn more »
launch autoscroll
font size
0
reset
how to read this tab
guitar tuner
edit
Autoscroll
slow
fast
+/-
esc
set tempo
stop
Title: Suburban War
Artist: Arcade Fire
Album: The Suburbs


Disclaimer: Nothing but the overall toneality of this tab is accurate!


Capo 5

Verses

E |-----0-----0-----0----------|--------------------3-------|
B |--------1-----------1-------|-----3-----3-----6----------|
G |----------------------------|--------5-------------------|
D |----------------------------|----------------------------|
A |--0-----------0--------0----|--2-----------3--------3----|
E |----------------------------|----------------------------|


-----3-----------3---------|
--6--------6--------5------|
-----------------------5--o|
--------------------------o|
--------3-----2------------|
---------------------------|

Until:

               C
Every passing car


Bridge Chords:

     C      D      G      Em     Am

E |--0------2------3------0------0----|
B |--1------3------0------0------1----|
G |--0------2------0------0------2----|
D |--2------0------0------2------2----|
A |--3-------------2------2------0----|
E |----------------3------0-----------|


Bridge:

C       D              Em       G  D  C
Yeah,   the night's so warm
C       D              Em
Yeah,   the night's so warm
G    D    C              D         Em             G  D
I've been living in the shadows of your song
C              D              Em
Living in the shadows of your song


Outro:

Cool chords (relative to Capo):

Fmaj7     Fadd#11    Am/B

|--0-------0---------0---|
|--1-------0---------1---|
|--2-------2---------2---|
|--3-------3---------0---|
|--3-------3---------2---|
|--1-------1---------x---|


C         Fmaj7    Fadd#11    Em         F       Am
All my    old      friends,   they don't know me now
Am/B   C
Oh     Oh

C         Fmaj7    Fadd#11    Em         F       Am
All my    old      friends,   they don't know me now
Am/B   C
Oh     Oh

Check out the video here:

https://www.youtube.com/watch?v=dCxhQFn4kLQ

            
            
Suggest correction
Creating personal tab
Creating personal tab
You can edit any tab online and save it as your Personal.

You can edit, replace or remove any tab part or add personal notes – all changes will be seen only by you.

Personal tabs can be accessed anytime from any device, even offline.
Learn more »
Give kudos to tab author, rate the tab!
1 2 3 4 5
comments
print report bad tab
guest
You may want to rate the tab now too:
select rating
Wanna post a correction for this tab? Suggest correction