Oops, an error
Loading. Please wait.
We have Chord Pro version of The Suburbs.
It's the closest thing you can get to the original song and it has interactive parts. Check out the tab »
×
17,732 views 30 this week
2 commentsread comments
1 2 3 4 5
x 12
add to favorites
×
Save as Personal and add changes to this tab that will be seen only by you. Learn more ›
×
You can save this tab as Personal to edit and correct it or add notes. All changes will be seen only by you. Learn more »
launch autoscroll
font size
0
reset
guitar tuner
edit
Autoscroll
slow
fast
+/-
esc
set tempo
stop
Difficulty
-------------------------------------------------------------------------------
			  THE SUBURBS -- ARCADE FIRE
-------------------------------------------------------------------------------

Tabbed By : Chris Winfield
e-mail: odc64.SOM@gmail.com

Tuning: Standard
Tempo: 120
Triplet 8ths (Swing feel)

     Q    E  E  Q    Q       Q    E  E  Q    Q       Q    E  E  Q    Q     
G||-----------------------|-----------------------|-----------------------|
D||--0----r--0--0---------|-----------------------|-----------------------|
A||------------------4----|--2----r--2--4----2----|-----------------------|
E||-----------------------|-----------------------|--2----r--2--2----3----|


  Q    E  E  E  E  Q      
------------------------||
------------------------||
-------------4-----7----||
--5----r--5-----5-------||

During the chorus, follow the guitar chords low:
C Am E D (you could even choose to play this song in drop D to get the low D)

Pretty easy. 99% certain this is correct.


Duration Legend
---------------
W - whole
H - half
Q - quarter
E - 8th
S - 16th
T - 32nd
X - 64th
. - note dotted
|-n-|  - n-tuplets
r - rest

            
            
Suggest correction
Creating personal tab
Creating personal tab
You can edit any tab online and save it as your Personal.

You can edit, replace or remove any tab part or add personal notes – all changes will be seen only by you.

Personal tabs can be accessed anytime from any device, even offline.
Learn more »
comments
print report bad tab
2 comments total.
+2 reply
aidan.zpeel 1,007 Jul 07, 2014 09:32 AM

Clearly wrong.

0 reply
CaliforniaBP 229 Jun 18, 2015 02:40 PM

The chords you mentioned for the chorus are played with capo on 2nd fret, but this is bass,therefore, no capo and it's
D Bm F# E

guest
Wanna post a correction for this tab? Suggest correction