Oops, an error
Loading. Please wait.

Vampire Forest Fire Chords

version 1
version 1

Acoustic

  • This version is based off the live 2005 KCRW perfo... Show more

Whole song

88 views 15 this week
no commentswrite comment
1 2 3 4 5
3 more votes to show rating
add to favorites
launch autoscroll
font size
0
reset
transpose
0
reset
simplify chords
display chords
guitar tuner
Autoscroll
slow
fast
+/-
esc
set tempo
stop
Help us to improve Ultimate-Guitar.com Take our survey!
×
Author
Difficulty
intermediate
C - x3201x
F/C - x3321x
F - 133211
Em - 022000
Am - x02210
G - 320033
D/F# - 200232
F/E - 033211
F/A - x0321x
Gadd11 - 32001x

[Intro]

C   F/C (x4)

[Verse 1]

C            F/C    Em
You wanna be set apart
Am   G           D/F#
Burn all of your art
  G        F        C
Repair the wasteful part
      F/C  Em   Am G    D/F#
I'm a vampire in a forest fire
G          F          Em    C
Hey we all gotta keep warm
G          F          Em    C         
Hey we all gotta keep warm
G         F         Am G   F
Driving towards the storm

[Verse 2]

C                 F/C  Em
Your father was a pervert
Am    G          D/F#
Face down in the dirt
G             F      C
He taught you how to hurt
F/C Em     Am  G   D/F#
My father was a miner
    G        F    Em     C
Who lived in the suburbs
      G       F     Em    C
Let's live in the suburbs
   G           F        Am         G       F
If I let where I'm from burn I can never return

[Verse 3]

C                F/C       Em
My brother reads you and me
Am  G      D/F#
His new poetry
G     F    C
How embarrassing
F/C   Em     Am    G   D/F#
Your sister pours the gasoline
G    F        Em     C
I'll fix your meals
G    F        Em     C
I'll fix your meals
G     F          Am G F
While your burns heal

[Break]
F   F/E
F   F/E
F   C (let ring)

[Interlude Guitar Arrangement]

e|--------------------------|
B|----5----------5-------5--|
G|------5---4------5---4--4-|
D|--------------------------|
A|--------------------------|
E|--------------------------| x6

e|--------------------------|
B|-3--1--0---3--1--0--3-1---|
G|--------------------------|
D|--------------------------|
A|--------------------------|
E|--------------------------| x2

e|--------------------------|
B|----6----------6-------6--|
G|------5---4------5---4--4-|
D|--------------------------|
A|--------------------------|
E|--------------------------| x2

e|-3---------3-------3------|
B|----1--0-----1---0---1----|
G|--------------------------|
D|--------------------------|
A|--------------------------|
E|--------------------------| x2

e|--------------------------|
B|----6----------6-------6--|
G|------5---4------5---4--4-|
D|--------------------------|
A|--------------------------|
E|--------------------------| x4


[Guitar resumes]

C  F/A  Gadd11 Am G  F

[Verse 4]

C
Find a house 
          F/A
You don't have to rebuild
Gadd11
Stone by stone brick by brick
Am              G            F
Nail by nail my father never meant to leave me this
F
meant to leave me this
    C
Let this love last
  F/A
I drive too fast
Gadd11
Said I'd return if I'd ever cared
    Am              G              F
But there's no interstate I find to take me there
F
To take me there, Woo!


C  F/A  Gadd11 Am G  F
Suggest correction
Give kudos to tab author, rate the tab!
1 2 3 4 5
comments
print report bad tab
guest
You may want to rate the tab now too:
select rating
Wanna post a correction for this tab? Suggest correction