Oops, an error
Loading. Please wait.

Wake Up Tab

119,958 views 27 this week
2 commentsread comments
1 2 3 4 5
x 18
add to favorites
launch autoscroll
font size
0
reset
how to read this tab
guitar tuner
Autoscroll
slow
fast
+/-
esc
set tempo
stop
Help us to improve Ultimate-Guitar.com Take our survey!
×
ARCADE FIRE
WAKE UP

Thanks to "theplot" for posting the earlier version of this song. Enjoy!

 -Steve (steveseligman@hotmail.com)


(INTRO/VERSE)

 Play Open C chord for a while, then

   C                       Am
E--3---5---3---5---3---0---0---3---0---3---0-----------------------------|
B--1---5---1---5---1---1---1---1---1---1---1---3-------------------------|
G--0---5---0---5---0---0---2---2---2---2---2---2-------------------------|
D--2-------2-------2---2---2---2---2---2---2---2-------------------------|
A--3-------3-------3---3---0---0---0---0---0---0-------------------------|
E------------------------------------------------------------------------|

   F                       C
E------------------------------------------------------------------------|
B--1---3---1---3---1---0---1---------------------------------------------|
G--2---2---2---2---2---2---0---------------------------------------------|
D--3---3---3---3---3---3---2---------------------------------------------|
A--3---3---3---3---3---3---3---------------------------------------------|
E------------------------------------------------------------------------|


 (VERSE in the Key of Bb - This begins at 3:22)
   Bb                      G           G   F#  F   E
E--6---8---6---8---6---5---3-----------3---2---1---0---------------------|
B--6---6---6---6---6---6---3-----------3---2---1---0---------------------|
G--7---7---7---7---7---7---4-----------4---3---2---1---------------------|
D--8---8---8---8---8---8---5-----------5---4---3---2---------------------|
A--------------------------5-----------5---4---3---2---------------------|
E--------------------------3-----------3---2---1---0---------------------|


   Bb                      F                                       C
E--6---8---6---8---6---5---8-----------8-----------8-----------8---------|
B--6---6---6---6---6---6---10--10--8---10--10--8---10--10--8---10--8-----|
G--7---7---7---7---7---7---10--10------10--10------10--10------10--9-----|
D--8---8---8---8---8---8---10--10------10--10------10--10------10--10----|
A--------------------------8---8-------8---8-------8---8-------8---10----|
E------------------------------------------------------------------8-----|

Now play the (INTRO/VERSE) but with a more upbeat rhythm. Ad lib as you like. End on 
C chord.
Suggest correction
comments
print report bad tab
2 comments total.
+1 reply
Nightwatchman 10 Mar 09, 2009 08:05 AM

The part at 3:22 sounds kinda wrong. You have written

" Bb G G F# F E "
E--6---8---6---8---6---5---3-----------3---2---1---0---------------------|
B--6---6---6---6---6---6---3-----------3---2---1---0---------------------|
G--7---7---7---7---7---7---4-----------4---3---2---1---------------------|
D--8---8---8---8---8---8---5-----------5---4---3---2---------------------|
A----------------------------------------------2---------------------|
E----------------------------------------------0---------------------|

but I think its
------Chromatic----- D# C C B Bb A G# G
E--6---6---6---6---6---6---8---------------------------------------------|
B--8---8---8---8---8---8---8---------------------------------------------|
G--8---8---8---8---8---8---9---------------------------------------------|
D--8---8---8---8---8---8---10----------10--9---8---7---6---5-------------|
A--6---6---6---6---6---6---10----------10--9---8---7---6---5---------|
E--6---6---6---6---6---6---8-----------8---7---6---5---4---3---------|

D# F C
E--6---6---6---6---6---6---8-----------8-----------8-----------8---------|
B--8---8---8---8---8---8---10--10--8---10--10--8---10--10--8---10--8-----|
G--8---8---8---8---8---8---10--10------10--10------10--10------10--9-----|
D--8---8---8---8---8---8---10--10------10--10------10--10------10--10----|
A--6---6---6---6---6---6---8---8---------------8---8-------8---10----|
E--6---6---6---6---6---6---8---8----------------------------------------|

Still, thanks for the great tab :)

0 reply
Nightwatchman 10 Mar 09, 2009 08:07 AM

Don't pay attention to what's written over the tab bars, it came out all wrong..

guest
You may want to rate the tab now too:
select rating
Wanna post a correction for this tab? Suggest correction