Oops, an error
Loading. Please wait.

Wake Up bass

version 2
version 2

Whole song

21,526 views 48 this week
2 commentsread comments
1 2 3 4 5
x 9
add to favorites
×
Save as Personal and add changes to this tab that will be seen only by you. Learn more ›
×
You can save this tab as Personal to edit and correct it or add notes. All changes will be seen only by you. Learn more »
launch autoscroll
font size
0
reset
guitar tuner
edit
Autoscroll
slow
fast
+/-
esc
set tempo
stop
Difficulty
You can change the timing of these tabs around to fit the song as you like, but
the right notes are here.

Intro:
G|---------------------------------|
D|---------------------------------|
A|-3-3---3--3--3---3-3---3--3--3---|
E|---------------------------------| x4

G|---------------------------------|
D|---------------------------------|
A|-3-3-3-3-3-3---3-3-3-3-3-3-3---3-|
E|---------------------------------| x8

Post-Intro:
G|-----------------------------------------------------------------|
D|-----------------------------------------------------------------|
A|-3-3-3-3-3-3---0-3-3-3-3-3-3---0-3-3-3-3-3-3---0-3-3-3-3-2-2-2-2-|
E|-----------------------------------------------------------------|

G|-----------------------------------------------------------------|
D|---------------------------------------------------------0-0-0-0-|
A|-0-0-0-0-0-0-----0-0-0-0-0-0-----0-0-0-0-0-0-----0-0-0-0---------|
E|---------------3---------------3---------------3-----------------|

G|-----------------------------------------------------------------|
D|-3-3-3-3-3-3-----3-3-3-3-3-3-----3-3-3-3-3-3-----3-3-3-3-2-2-2-2-|
A|---------------3---------------3---------------3-----------------|
E|-----------------------------------------------------------------|

Verse:
G|-----------------------------------------------------------------|
D|-----------------------------------------------------------------|
A|-3-3-3-3-3-3---0-3-3-3-3-3-3---0-3-3-3-3-3-3---0-3-3-3-3-2-2-2-2-|
E|-----------------------------------------------------------------|

G|-----------------------------------------------------------------|
D|---------------------------------------------------------0-0-0-0-|
A|-0-0-0-0-0-0-----0-0-0-0-0-0-----0-0-0-0-0-0-----0-0-0-0---------|
E|---------------3---------------3---------------3-----------------|

G|-----------------------------------------------------------------|
D|-3-3-3-3-3-3-----3-3-3-3-3-3-----3-3-3-3-3-3-----3-3-3-3-2-2-2-2-|
A|---------------3---------------3---------------3-----------------|
E|-----------------------------------------------------------------|

G|-----------------------------------------------------------------|
D|-----------------------------------------------------------------|
A|-3-3-3-3-3-3---0-3-3-3-3-3-3---0-3-3-3-3-3-3---0-3-3-3-3-3-3-3-0-|
E|-----------------------------------------------------------------|

Bridge:
G|-------------------------------------------------------|
D|-------------8-------------8-------------8-------------|
A|-6--6--6---6---6--6--6---6---6--6--6---6---6--6--5--5--|
E|-------------------------------------------------------|

G|-------------------------------------------------------|
D|-------------5-------------5-------------5-------------|
A|-3--3--3---3---3--3--3---3---3--3--3---3---3--3--5--5--|
E|-------------------------------------------------------|

G|-------------------------------------------------------|
D|-------------8-------------8-------------8-------------|
A|-6--6--6---6---6--6--6---6---6--6--6---6---6--6--5--5--|
E|-------------------------------------------------------|

G|-------------------------------------------------------|
D|-------------8-------------8-------------8-------8--8--|
A|-8--8--8---8---8--8--8---8---8--8--8---8---8--8--------|
E|-------------------------------------------------------|

Middle 8 (More Upbeat):
G|---------------------------------------------------|
D|----------------------5-5--------------------------|
A|-3--3--3----3--3--3-3-----3--3--3----3--3--3-3-5-5-|
E|---------------------------------------------------|

G|---------------------------------------------------|
D|----------------------2-2----------------------0-0-|
A|-0--0--0----0--0--0-0-----0--0--0----0--0--0-0-----|
E|---------------------------------------------------|

G|----------------------5-5--------------------------|
D|-3--3--3----3--3--3-3-----3--3--3----3--3--3-3-2-2-|
A|---------------------------------------------------|
E|---------------------------------------------------|

G|---------------------------------------------------|
D|----------------------5-5--------------------------|
A|-3--3--3----3--3--3-3-----3--3--3----3--3--3-3-5-5-|
E|---------------------------------------------------|

            
            
Suggest correction
Creating personal tab
Creating personal tab
You can edit any tab online and save it as your Personal.

You can edit, replace or remove any tab part or add personal notes – all changes will be seen only by you.

Personal tabs can be accessed anytime from any device, even offline.
Learn more »
comments
print report bad tab
2 comments total.
+3 reply
k8mc 391 Dec 28, 2010 01:06 PM

good tab but there are a few variations on the ending...

first, I don't think it ever goes

G|----------------------5-5--------------------------|
D|-3--3--3----3--3--3-3-----3--3--3----3--3--3-3-2-2-|
A|---------------------------------------------------|
E|---------------------------------------------------|


it sounds more like:
G|---------------------------------------------------|
D|-3--3--3----3--3--3-3-0---3--3--3----3--3--3-3-5-5-|
A|---------------------------------------------------|
E|---------------------------------------------------|


and when they first sing 'with my lightning bolt a-glowing I can see where I am going' the bass changes to:
4:41
with my... a-glowing... where I am going
G|-----------------------------------------|
D|-----------------------------------------|
A|-3--------2-0--------3------------0-0--0-|
E|-----------------------1-----------------|

then straight back into the main 3s and 5s sequence.

Other than that there are a few ups and downs but this pretty much covers it. awesome song.

0 reply
k8mc 391 Dec 28, 2010 11:30 PM

oops the lyrics went out of line on that last bit but I'm sure you'll figure it out if you listen to the song :)

guest
Wanna post a correction for this tab? Suggest correction