Oops, an error
Loading. Please wait.

We Used To Wait Tab

3,317 views 6 this week
1 commentread comment
1 2 3 4 5
x 3
add to favorites
launch autoscroll
font size
0
reset
how to read this tab
guitar tuner
Autoscroll
slow
fast
+/-
esc
set tempo
stop
Help us to improve Ultimate-Guitar.com Take our survey!
×
Author
                             We Used To Wait - Arcade Fire

Tuning:Standard


e|-------------------------------------|
B|--------8-8----8-8----8-8----8-8-----|-These are played really quickly,
G|--------8-8----8-8----8-8----8-8-----|-listen to the song to get the rhythm
D|--------1010---1010---1010---1010-<--|
A|-------------------------------------|
E|--3/8--------------------------------|

e|---------------------------------------------|
B|--------4-4-----------4-4--------4-4---4-4---|
G|--------3-3-----------5-5--------3-3---3-3---|
D|--------5-5-----------6-6--------5-5---5-5---|
A|---------------------------------------------|
E|--3/6-----------3/4----------3---------------|

e|-------------------------------------------------------------------------|
B|-----9999-88-66-44----9999-88-66-44-------3-44-------4-4--4-4---4-4-4----|
G|--------------------------------------3-5------3-5---3-3--3-3---3-3-3----|
D|-----------------------------------------------------5-5--5-5---5-5-5----|
A|-------------------------------------------------------------------------|
E|--8----------------------------------------------------------------------|

e|--8-8---8-8---8-8---8-8--------------------------------------------------|
B|--8-8---8-8---8-8---8-8-----------4-4------------------------------------|
G|--8-8---8-8---8-8---8-8----8-8----5-5---8-8---8-8---8-8-8----------------|
D|--1010--1010--1010--1010---8-8----6-6---8-8---8-8---8-8-8----------------|
A|---------------------------1010---------1010--1010--101010---------------|
E|-------------------------------------------------------------------------|

e|--8-8---8-8---8-8---8-8----------------|
B|--8-8---8-8---8-8---8-8-----------4-4--|
G|--8-8---8-8---8-8---8-8----8-8----5-5--|
D|--1010--1010--1010--1010---8-8----6-6--|
A|---------------------------1010--------|
E|---------------------------------------|

e|------------------------------------------------------------|
B|--99-88-6-4---8-8---8-8---8-8---8-8-----------4-4-----------|
G|--------------8-8---8-8---8-8---8-8----8-8----5-5---8-8-----|
D|--------------1010--1010--1010--1010---8-8----6-6---8-8-----|
A|---------------------------------------1010---------1010----|
E|------------------------------------------------------------|

e|--8-8---8-8---8-8---8-8-------------------------|
B|--8-8---8-8---8-8---8-8-----------4-4-----------|
G|--8-8---8-8---8-8---8-8----8-8----5-5----8-8----|
D|--1010--1010--1010--1010---8-8----6-6----8-8----|
A|---------------------------1010----------1010---|
E|------------------------------------------------|

e|--8-8---8-8---8-8---8-8----------------|
B|--8-8---8-8---8-8---8-8-----------4-4--|
G|--8-8---8-8---8-8---8-8----8-8----5-5--|
D|--1010--1010--1010--1010---8-8----6-6--|
A|---------------------------1010--------|
E|---------------------------------------|

e|--15-------13--11-----------|
B|----------------------------|
G|----------------------------|   X6
D|----------------------------|
A|----------------------------|
E|----------------------------|

    pm-------------------------|
e|-----------------------------|
B|--88888888-99-88-66-44-------|
G|-----------------------------|
D|-----------------------------|
A|-----------------------------|
E|-----------------------------|

e|--8-8---8-8---8-8---8-8--------------------------------|
B|--8-8---8-8---8-8---8-8-----------4-4------------------|
G|--8-8---8-8---8-8---8-8-----8-8---5-5---8--------------|
D|--1010--1010--1010--1010----8-8---6-6---8--------------|
A|----------------------------1010--------10-------------|
E|-------------------------------------------------------|

e|--15--------13--11---         --15----16--18------|
B|---------------------         --------------------|
G|--------------------- X6      --------------------| X3
D|---------------------         --------------------|
A|---------------------         --------------------|
E|---------------------         --------------------|

e|-----------------8-----------13----------8----8-8-8-8---|
B|--b8-----b8----------b8----------b8-----------8-8-8-8---|
G|--b8-----b8-h10p-----b8-h10p-----b8-h10p------8-8-8-8---|X2
D|--------------------------------------------------------|
A|--------------------------------------------------------|
E|--------------------------------------------------------|

e|----6-8-11-8-6---11-8-6-------------|
B|---------------8--------------------|
G|------------------------------------|X9
D|------------------------------------|
A|------------------------------------|
E|------------------------------------|

It's not perfect, but it's as close as I could get.

************************************

| pm  palm mute
| /   slide up
| \   slide down
| h   hammer-on
| p   pull-off
| ~   vibrato
| +   harmonic
| x   Mute note
| b   Bend
| pb  Pre-bend
| br  Bend release
| pbr Pre-bend release
| brb Bend release bend

************************************
Suggest correction
Give kudos to tab author, rate the tab!
1 2 3 4 5
comments
print report bad tab
1 comment total.
0 reply
CaliforniaBP 219 Dec 08, 2014 10:00 AM

Lack of formatting. There's no lyrics to know where exactly it's played. If it already says listen to the song this part switches fast he/she could at least put in the lyrics or mark the time in the song, although the tab is not so bad it's really fuzzy.

guest
You may want to rate the tab now too:
select rating
Wanna post a correction for this tab? Suggest correction