Oops, an error
Loading. Please wait.

Ape tab

69 views 1 this week
no commentswrite comment
1 2 3 4 5
3 more votes to show rating
add to favorites
×
Save as Personal and add changes to this tab that will be seen only by you. Learn more ›
×
You can save this tab as Personal to edit and correct it or add notes. All changes will be seen only by you. Learn more »
launch autoscroll
font size
0
reset
how to read this tab
guitar tuner
edit
Autoscroll
slow
fast
+/-
esc
set tempo
stop
-------------------------------------------------------------------------------
                             A.P.E - Arcane Awakening
-------------------------------------------------------------------------------
Tabbed by:
E-mail:

Tuning: A E A D F# B


Intro
B |---------------------------------------------------------------------------|
G#|---------------------------------------------------------------------------|
D |---------------------------------------------------------------------------| 
A |-3--------------------------------------------------------3333-------------|  
E |-----2--------------------0--0----------------------0--0-------2222--------|
A |--------0000000000000000--0--0----1111111111111111--1--1-------------------|
           |-------------------P.M.-----------------------|

e|---------------------------------------------------------------------------|
B|---------------------------------------------------------------------------|
G|---------------------------------------------------------------------------|
D|-------------------------------------------------------3333----------------|
A|-------------------0--0-------------------------0--0--------2222-----------|
E|-0000000000000000--0--0-------1111111111111111--1--1-----------------------|
  |-----------------------P.M.------------------|


chorus riff
e|-----------------------------------------------------------------------------------|
B|-----------------------------------------------------------------------------------|
G|---------------------------------------------------------------------2222----------|----\
D|--------------------5555----------------------------------------3333---------------|     \
A|----------5555-----------5555-6666--3333--------5555-------------------------------|      \
E|-00000000------0000-----------------------0000--------0000-3333--------------------|       \
  |--P.M--|     |-PM-|                     |-PM-|                                     \ 
                                                                                       |
 |-----------------------------------------------------------------------------------|         |  X's 2
B|-----------------------------------------------------------------------------------|         | 
G|-----------------------------------------------------------------------------------|        /
D|-------------------------5555--------------------------------------------8888-7777-|       /
A|-2222----------5555-----------5555-6666-3333----------7777----------77777----------|      /
E|------00000000------0000---------------------55555555------0000-5555---------------| -----
       |--PM---|     |-PM-|                   |--PM---|      |pm|
                                


                              **Guitar Bridge - Tim **


                                    
Alt. Pick over Breakdown {rhythm)
e|---------------------------------------------------------------------------|
B|---------------------------------------------------------------------------|
G|---------------------------------------------------------------------------|
D|---------------------------------------------------------------------------|  X's 2
A|-3333333322223333--------------------33333333666655552222222222222222------|
E|------------------3333333333333333-----------------------------------------|


Breakdown

verse
e|------------------------------------------------------------------------------------------|
B|------------------------------------------------------------------------------------------|
G|------------------------------------------------------------------------------------------|
D|--------------------------------------------------------5---------------------------------| \
A|-5h8-------------5h8---4h7-4h7-5h8----------------5-7-8---8-7-5h8--------------5h8---4h7--|  \
E|-----0-0-0-0-0-0-----0----0-------0-0-0-0-0-0--7h8-----------------0-0-0-0-0-0-----0-----0|   \
       |---PM----|    PM   PM       |---PM----|                      |----PM---|    PM     PM                                             
e|------------------------------------------------------------------------------------------|     \  X's 3
B|------------------------------------------------------------------------------------------|     /
G|------------------------------------------------------------------------------------------|    /
D|------------------------------------------------------------------------------------------|   /
A|-4h7-5h8--------------5h8p5---4h7p4-------------------------------------------------------|  /
E|---------0-0-0-0-0-0--------6-------3-----------------------------------------------------|
           |----PM---|      

Bridge
e|---------------------------------------------------------------------------|
B|---------------------------------------------------------------------------|
G|---------------------------------------------------------------------------|
D|-1---------3-5-------------------------------------------------------------|
A|---2-----4-----4---3-2-----------------------------------------------------|
E|-----3-5---------3-----1---------------------------------------------------|

*chorus riff*

*Tim's Bridge*


e|---------------------------------------------------------------------------|
B|---------------------------------------------------------------------------|
G|---------------------------------------------------------------------------|
D|---------------------------------------------------------------------------|
A|-----------------1111111100000000------------------------------------------| Alt Picked X's 4
E|-0000000011110000----------------------------------------------------------|




   |--X's4--|        |------X'2-------|   |----------------------------X2-------------------------------|
e|----------------------------------------------------------------------------------------------------------|
B|----------------------------------------------------------------------------------------------------------|
G|----------------------------------------------------------------------------------------------------------|
D|-------3--2--------5--4-5----5--8-7-4----5-------4-5---------------------5-------8-7-4--------------------|
A|-0-1-0-1--0--------3--2-3-3--3--6-5-2----3-3-3-3-2-3-3-------------------3-3-3-3-6-5-2-2-2-2-2-2-2-2-2-2--|
E|-0-1-0--------------------3--------------------------3-3-3-3-3-3-3-3-3-3----------------------------------|
     |-|                                     |-pm-|      |------pm-------|  | pm |       |-------pm------|
      pm


e|---------------------------------------------------------------------------------------------------------|
B|---------------------------------------------------------------------------------------------------------|
G|---------------------------------------------------------------------------------------------------------|
D|----------------------------------------------------------5----------------------------------------------|
A|-5h8-------------5h8---4h7---4h7-5h8-----------------5-7-8--8-7-------------------5h8p5-----4h7p4--------|
E|-----0-0-0-0-0-0-----0-----0---------0-0-0-0-0-0--7h8------------0000---0000-0000-------6\3-------3/6----|
      |-----pm----|   pm    pm         |----pm---|                 pm     pm   pm


*Verse X's 1*   



e|--------------------------------------------------------------------------------|
B|--------------------------------------------------------------------------------|
G|--------------------------------------------------------------------------------|
D|--------------------------------------------------------------------------------|
A|--------------------------------------------------------------------------------|
E|-0-0000-0-0000-0000-000-0--0-0-0-0-0-0-0-0-0000---0000-0000--0-0-0-0-0-0-0-0----|
   |------------------------------pm-----------------------------------------|

*Under Lead 1*
e|---------------------------------------------------------------------------|
B|---------------------------------------------------------------------------|
G|---------------------------------------------------------------------------|
D|---------------------------------------------------------------------------|
A|-5-5---6-----3---5-5---6-----3---5-5---6-----3---6---5---3---2-------------|
E|-5-5-0-6-0-0-3-0-5-5-0-6-0-0-3-0-5-5-0-6-0-0-3-0-6-0-5-0-3-0-2-0-----------|
       |   | |   |     |   | |   |     |   | |   |   |   |   |   |
      pm  pm pm  pm   pm  pm pm  pm   pm  pm pm pm  pm  pm  pm  pm

*Pre Solo*
e|---------------------------------------------------------------------------|
B|---------------------------------------------------------------------------|
G|---------------------------------------------------------------------------| Xs 4
D|---------------------------------------------------------------------------|
A|-5-5-5-6-6-6-3-3-5-5-5-6-6-6-3-3-5-5-5-6-6-6-3-3--6-6-5-5-3-3-2-2----------|
E|-5-5-5-6-6-6-3-3-5-5-5-6-6-6-3-3-5-5-5-6-6-6-3-3--6-6-5-5-3-3-2-2----------|
   |-----------------------------pm-------------------------------|




e|-------------------------------------------------------------------------------------------------|
B|-------------------------------------------------------------------------------------------------|
G|-------------------------------------------------------------------------------------------------| Xs 4
D|-------------------------------------------------------------------------------------------------|
A|-7-7-7-------7-7-7-------8-8-8-------8-8-8-------3-3-3-------3-3-3--------------3~~-------1~~----|
E|-------7-7-7-------7-7-7-------7-7-7-------7-7-7-------3-3-3-------3-3-3--1-1-1-----0-0-0--------|



e|----------------------------------------------------------------------------------------------------|
B|----------------------------------------------------------------------------------------------------|
G|----------------------------------------------------------------------------------------------------| Xs 4
D|---------------------------------------1-------------------------------1---------3-5----------------|
A|-------------8p7---7~~---------------3---3---------------8p7---7~~-------2-----4-----4---3-2--------|
E|-0-000-0-0-0-----0---0-000-0-0-0-0h1-------3-0-000-0-0-0-----0-----0-0-----3-5---------3-----1------|
   |----pm---|    pm   |----pm---|             |---pm----|     pm    |pm|  



e|---------------------------------------------------------------------------|
B|---------------------------------------------------------------------------|
G|---------------------------------------------------------------------------|
D|---------------------------------------------------------------------------| Alt Picked Xs 3
A|--------------------111110000033333333333366665555222222-------------------|
E|-0000000001111100000-------------------------------------------------------|




e|---------------------------------------------------------------------------|
B|---------------------------------------------------------------------------|
G|---------------------------------------------------------------------------|
D|----------3-2--------------------------------------------------------------|
A|-0----1-0-1-0-0------------------------------------------------------------|
E|-0----1-0-----0------------------------------------------------------------|
        |pm|
                                   *THE END*

                                            
************************************

| /   slide up
| \   slide down
| h   hammer-on
| p   pull-off
| ~   vibrato
| +   harmonic
| x   Mute note
| b   Bend
| pb  Pre-bend
| br  Bend release
| pbr Pre-bend release
| brb Bend release bend

************************************

            
            
Suggest correction
Creating personal tab
Creating personal tab
You can edit any tab online and save it as your Personal.

You can edit, replace or remove any tab part or add personal notes – all changes will be seen only by you.

Personal tabs can be accessed anytime from any device, even offline.
Learn more »
Give kudos to tab author, rate the tab!
1 2 3 4 5
comments
print report bad tab
guest
Wanna post a correction for this tab? Suggest correction