Oops, an error
Loading. Please wait.

Humanism Is A Condition Tab

245 views 1 this week
no commentswrite comment
1 2 3 4 5
excellent!
x 3
add to favorites
launch autoscroll
font size
0
reset
how to read this tab
guitar tuner
Autoscroll
slow
fast
+/-
esc
set tempo
stop
Help us to improve Ultimate-Guitar.com Take our survey!
×
Author
Difficulty
intermediate
This is a track from Arcane Roots 'Brave The Sea' EP which is very hard to find online.

I haven't label the different parts as this song doesn't really fit into the traditional verse/chorus 
but I've double spaced the different sections to help break it up.

E|-----------------------------------------------------|
B|-----------------------------------------------------|
G|-----------------------------------------------------|
D|--------5-7-5-4---5-4--------------------------------|
A|--5-6-7---------------7-5-7-5-4----------------------|
E|--------------------------------6~------(slide)------|

E|-----------------------|-----------------------|-----------------------|-------------------9-9-9-9--|
B|--7-7-8x-7--8----7---8-|--7-7-8x-7--8----7---8-|--7-7-8x-7--8----7---8-|--7h8-8x-7--8---------------|
G|--7-7-7x-7--7----7---7-|--7-7-7x-7--7----7---7-|--7-7-7x-7--7----7---7-|--7-7-7x-7--7------7-7-7-7--|
D|--7-7-9x-7--9----7---9-|--7-7-9x-7--9----7---9-|--7-7-9x-7--9----7---9-|--7h9-9x-7--9---------------|
A|-----------------------|-----------------------|-----------------------|----------------------------|
E|-----------------------|-----------------------|-----------------------|----------------------------|

E|-----------------------|-----------------------|-----------------------|---------------------------|
B|--7-7-8x-7--8----7---8-|--7-7-8x-7--8----7---8-|--7-7-8x-7--8----7---8-|-7h8-8x-7------------------|
G|--7-7-7x-7--7----7---7-|--7-7-7x-7--7----7---7-|--7-7-7x-7--7----7---7-|-7-7-7x-7--9-8-7-----------|
D|--7-7-9x-7--9----7---9-|--7-7-9x-7--9----7---9-|--7-7-9x-7--9----7---9-|-7h9-9x-7--------9-8-7-----|
A|-----------------------|-----------------------|-----------------------|-----------------------10--|
E|-----------------------|-----------------------|-----------------------|---------------------------|

E|-----------------------------------------------------|------------------------|---------------------------|
B|-----------------------------------------------------|---7-7-8x-7--8----7---8-|-7h8-8x-7------------------|
G|------9----------9-----------------------------------|---7-7-7x-7--7----7---7-|-7-7-7x-7--9-8-7-----------|
D|--------------------------------------------------5~-|---7-7-9x-7--9----7---9-|-7h9-9x-7--------9-8-7-----|
A|-----------------------4----2b3b2-0---0---0-5-6-7----|------------------------|-----------------------10--|
E|-6--6---6---6--6---6---2------------2----------------|------------------------|---------------------------|

E|-----------------------------------------------------|------------------------|------------------9-9-9-9--|
B|-----------------------------------------------------|---7-7-8x-7--8----7---8-|-7h8-8x-7--8---------------|
G|------9----------9-----------------------------------|---7-7-7x-7--7----7---7-|-7-7-7x-7--7------7-7-7-7--|
D|--------------------------------------------------5~-|---7-7-9x-7--9----7---9-|-7h9-9x-7--9---------------|
A|-----------------------4----2b3b2-0---0---0-5-6-7----|------------------------|---------------------------|
E|-6--6---6---6--6---6---2------------2----------------|------------------------|---------------------------|

E|--------------------------------------|      |----------------------------------|
B|--------12-12-14--12--x-x-12-12-x-12--|      |-------12-12----------------------|
G|--12----12-12-12--12--x-x-12h14-x-12--|x3    |-12----12-12-12---9-8-7-----------|
D|--12h14-------------------------------|      |-12h14-------14---------9-8-7-----|
A|--------------------------------------|      |------------------------------10--|
E|--------------------------------------|      |----------------------------------|

E|-----------------------------------------------------|------------------------|---------------------------|
B|-----------------------------------------------------|---7-7-8x-7--8----7---8-|-7h8-8x-7------------------|
G|------9----------9-----------------------------------|---7-7-7x-7--7----7---7-|-7-7-7x-7--9-8-7-----------|
D|--------------------------------------------------5~-|---7-7-9x-7--9----7---9-|-7h9-9x-7--------9-8-7-----|
A|-----------------------4----2b3b2-0---0---0-5-6-7----|------------------------|-----------------------10--|
E|-6--6---6---6--6---6---2------------2----------------|------------------------|---------------------------|

E|-----------------------------------------------------|
B|-----------------------------------------------------|
G|------9----------9-----------------------------------|
D|--------------------------------------------------5~-|
A|-----------------------4----2b3b2-0---0---0-5-6-7----|
E|-6--6---6---6--6---6---2------------2----------------|



E|------------------------------------------------------------------------|
B|--8---8---8---8---8---8---8---8--10-11---11---11---11---8---8---8---8---|
G|--x---x---x---x---x---x---x---x--x--x----x----x----x----x---x---x---x---|x3
D|--5---5---5---5---5---5---5---5--7--8----8----8----8----5---5---5---5---|
A|--7---7---7---7---7---7---7---7--9--10---10---10---10---6---6---6---6---|
E|------------------------------------------------------------------------|

(Driving)
E|---------------------------------------------------------|
B|--8---------------------8--10-11------------8------------|
G|--x---------------------x--x--x-------------x------------|x2
D|--5---------------------5--7--8-------------5------------|
A|--7---------------------7--9--10------------6------------|
E|---------------------------------------------------------|


E|-----------------------------------------------------------------------------------|
B|-----------------------------------------------------------------------------------|
G|------------------------------------------4-4--4--x-x--x--x-x-4-4--4--x-x--x--x-x--|
D|--4-4--4--------------4-4--4----------------------x-x--x--x-x---------x-x--x--x-x--|
A|--6-5--4--------------6-5--4--------------6-5--4--x-x--x--x-x-6-5--4--x-x--x--x-x--|
E|-----------------------------------------------------------------------------------|

E|--------------------------------------------------------------------------------------------------|
B|--------------------------------------------------------------------------------------------------|
G|--------------------------------------------------------------------------------------------------|
D|------------9--9--9-9------------9--9--9-9------------9--9--9-9------------9--9--9-9--------------|
A|--3---------7--7--7-7--3---------7--7--7-7--3---------7--7--7-7--3---------7--7--7-7--2-----------|
E|--5-4--3--x-0--0--0-0--5-4--3--x-0--0--0-0--5-4--3--x-0--0--0-0--5-4--3--x-0--0--0-0--0--2--9~----|


Palm Muted

E|-------------------------------------------------------------| _
B|-------------------------------------------------------------|  |
G|-------------------------------------------------------------|  |
D|-1-1--1---1--1--1-1--1---1--1--1-1--1---1--1--1-1--1---1--1--|  |
A|-------------------------------------------------------------|  |
E|-------------------------------------------------------------|  | 
                                                                  |x4
E|-------------------------------------------------------------|  |
B|-------------------------------------------------------------|  |
G|-------------------------------------------------------------|  |
D|-1-1--1---1--1--1-1--1---1--1--1-1--1---1--1--1-1--1---1--1--|  |
A|-3-3--3---3--3--3-3--3---3--3--2-2--2---2--2--2-2--2---2--2--| _|
E|-------------------------------------------------------------|

E|---6---------------------------------------------------------------------------------------|
B|---4---------------------------------------------------------------------------------------|
G|---6---------------------------------------------------------------------------------------|
D|-------------------------------1-1--1---1--1--1-1--1---1--1--1-1--1---1--1--1-1--1---1--1--|
A|---6---------------------------3-3--3---3--3--3-3--3---3--3--2-2--2---2--2--2-2--2---2--2--|
E|-------------------------------------------------------------------------------------------|

E|---6---------------------------------------------------------------------------------------|
B|---4---------------------------0-0--0---0--0--0-0--0---0--0--0-0--0---0--0--0-0--0---0--0--|
G|---6---------------------------x-x--x---x--x--x-x--x---x--x--x-x--x---x--x--x-x--x---x--x--|
D|-------------------------------1-1--1---1--1--1-1--1---1--1--1-1--1---1--1--1-1--1---1--1--|
A|---6---------------------------3-3--3---3--3--3-3--3---3--3--2-2--2---2--2--2-2--2---2--2--|
E|-------------------------------------------------------------------------------------------|


(Listen to track for accurate strumming pattern)
E|-------0---------0---------0---------0----------------------------------------|
B|-------0---------0---------2---------2----4-----------------4-----------------|
G|-------1---------1---------1---------1----5-----------------4-----------------|x2
D|--2----2----2----2----2----2----2----2----6-----------------6-----------------|
A|--2---------2---------2---------2---------6-----------------6-----------------|
E|--0---------0---------0---------0---------4-----------------4-----------------|

E|-------------------0---------------------------------------------------|
B|--0----------------2---------------4-----------------4-----------------|
G|--1----------------1---------------5-----------------4-----------------|x2
D|--2----------------2---------------6-----------------6-----------------|
A|--2----------------2---------------6-----------------6-----------------|
E|--0----------------0---------------4-----------------4-----------------|


E|------------4------------------4----------------------------------------------|
B|------------5--5---------------5--5----------------9-------10-------9---------|
G|------4-----------4------4-----------4-------8-----8--8-------8--------8------|x4
D|---------------------------------------------------------9-------9--------9---|
A|---4-----4------------4-----4-------------7-----7-----------------------------|
E|------------------------------------------------------------------------------|

(Driving)
E|-----------------------------------------------|
B|-----------------------------------------------|
G|---8-------------9-----------------------------|
D|---9-------------10----------------------------|
A|---9-------------10----------------------------|
E|---7-------------8-----------------/20~--------|


(Listen to track for strumming pattern)
E|------------0-----------------0-----------------0-------------------------|
B|---1--------1--------2--------1--------1--------1--------4----------------|
G|---2--------0--------0--------0--------2--------0--------5----------------|x4
D|---3--------2--------3--------2--------3--------2--------6----------------|
A|---3--------3--------4--------3--------3--------3--------6----------------|
E|---1-----------------------------------1-----------------4----------------|

E|---------------------------------------------------------------------------|
B|---1-----------------------------------13b--------------------1------------|
G|---2-----------------------------------14b--------------------2------------|
D|---3-----------------------------------15---------------------3------------|
A|---3-----------------------------------15---------------------3------------|
E|---1-----------------------------------13---------------------1------------|

Classic 'live' rock ending (with phaser and tremolo effects soloing around the F pentatonic)


Hopefully that all makes sense. Can't say its 100% accurate but gives you a rough idea.


Suggest correction
Give kudos to tab author, rate the tab!
1 2 3 4 5
comments
print report bad tab
guest
You may want to rate the tab now too:
select rating
Wanna post a correction for this tab? Suggest correction